  0
SECTION
  2
HEADER
  9
$ACADVER
  1
AC1018
  9
$ACADMAINTVER
 70
    39
  9
$DWGCODEPAGE
  3
DOS932
  9
$LASTSAVEDBY
  1
fottrem
  9
$INSBASE
 10
0.0
 20
0.0
 30
0.0
  9
$EXTMIN
 10
91.7851771256918
 20
137.7678366583862
 30
0.0
  9
$EXTMAX
 10
116.7842154110347
 20
143.8838093079589
 30
0.0
  9
$LIMMIN
 10
0.0
 20
0.0
  9
$LIMMAX
 10
279.4
 20
215.9
  9
$ORTHOMODE
 70
     0
  9
$REGENMODE
 70
     1
  9
$FILLMODE
 70
     1
  9
$QTEXTMODE
 70
     0
  9
$MIRRTEXT
 70
     1
  9
$LTSCALE
 40
1.0
  9
$ATTMODE
 70
     1
  9
$TEXTSIZE
 40
3.5
  9
$TRACEWID
 40
1.0
  9
$TEXTSTYLE
  7
Standard
  9
$CLAYER
  8
0
  9
$CELTYPE
  6
ByLayer
  9
$CECOLOR
 62
   256
  9
$CELTSCALE
 40
1.0
  9
$DISPSILH
 70
     0
  9
$DIMSCALE
 40
1.0
  9
$DIMASZ
 40
6.0
  9
$DIMEXO
 40
1.0
  9
$DIMDLI
 40
3.75
  9
$DIMRND
 40
0.0
  9
$DIMDLE
 40
0.0
  9
$DIMEXE
 40
1.0
  9
$DIMTP
 40
0.0
  9
$DIMTM
 40
0.0
  9
$DIMTXT
 40
3.5
  9
$DIMCEN
 40
2.5
  9
$DIMTSZ
 40
0.0
  9
$DIMTOL
 70
     0
  9
$DIMLIM
 70
     0
  9
$DIMTIH
 70
     1
  9
$DIMTOH
 70
     1
  9
$DIMSE1
 70
     0
  9
$DIMSE2
 70
     0
  9
$DIMTAD
 70
     1
  9
$DIMZIN
 70
     0
  9
$DIMBLK
  1

  9
$DIMASO
 70
     1
  9
$DIMSHO
 70
     1
  9
$DIMPOST
  1

  9
$DIMAPOST
  1

  9
$DIMALT
 70
     0
  9
$DIMALTD
 70
     3
  9
$DIMALTF
 40
0.0393700787
  9
$DIMLFAC
 40
2.0
  9
$DIMTOFL
 70
     1
  9
$DIMTVP
 40
0.0
  9
$DIMTIX
 70
     0
  9
$DIMSOXD
 70
     0
  9
$DIMSAH
 70
     0
  9
$DIMBLK1
  1

  9
$DIMBLK2
  1

  9
$DIMSTYLE
  2
ISO-25
  9
$DIMCLRD
 70
     0
  9
$DIMCLRE
 70
     0
  9
$DIMCLRT
 70
     0
  9
$DIMTFAC
 40
1.0
  9
$DIMGAP
 40
1.524
  9
$DIMJUST
 70
     0
  9
$DIMSD1
 70
     0
  9
$DIMSD2
 70
     0
  9
$DIMTOLJ
 70
     0
  9
$DIMTZIN
 70
     0
  9
$DIMALTZ
 70
     0
  9
$DIMALTTZ
 70
     0
  9
$DIMUPT
 70
     0
  9
$DIMDEC
 70
     2
  9
$DIMTDEC
 70
     2
  9
$DIMALTU
 70
     2
  9
$DIMALTTD
 70
     3
  9
$DIMTXSTY
  7
Standard
  9
$DIMAUNIT
 70
     0
  9
$DIMADEC
 70
     0
  9
$DIMALTRND
 40
0.0
  9
$DIMAZIN
 70
     0
  9
$DIMDSEP
 70
    44
  9
$DIMATFIT
 70
     3
  9
$DIMFRAC
 70
     0
  9
$DIMLDRBLK
  1

  9
$DIMLUNIT
 70
     2
  9
$DIMLWD
 70
    -2
  9
$DIMLWE
 70
    -2
  9
$DIMTMOVE
 70
     0
  9
$LUNITS
 70
     2
  9
$LUPREC
 70
     2
  9
$SKETCHINC
 40
1.0
  9
$FILLETRAD
 40
10.0
  9
$AUNITS
 70
     0
  9
$AUPREC
 70
     0
  9
$MENU
  1
.
  9
$ELEVATION
 40
0.0
  9
$PELEVATION
 40
0.0
  9
$THICKNESS
 40
0.0
  9
$LIMCHECK
 70
     0
  9
$CHAMFERA
 40
10.0
  9
$CHAMFERB
 40
10.0
  9
$CHAMFERC
 40
20.0
  9
$CHAMFERD
 40
0.0
  9
$SKPOLY
 70
     0
  9
$TDCREATE
 40
2453354.092125822
  9
$TDUCREATE
 40
2453353.717125822
  9
$TDUPDATE
 40
2454742.374194445
  9
$TDUUPDATE
 40
2454741.999194445
  9
$TDINDWG
 40
0.0466898032
  9
$TDUSRTIMER
 40
0.0466782523
  9
$USRTIMER
 70
     1
  9
$ANGBASE
 50
0.0
  9
$ANGDIR
 70
     0
  9
$PDMODE
 70
     0
  9
$PDSIZE
 40
-1.0
  9
$PLINEWID
 40
0.0
  9
$SPLFRAME
 70
     0
  9
$SPLINETYPE
 70
     6
  9
$SPLINESEGS
 70
     8
  9
$HANDSEED
  5
8B7
  9
$SURFTAB1
 70
     6
  9
$SURFTAB2
 70
     6
  9
$SURFTYPE
 70
     6
  9
$SURFU
 70
     6
  9
$SURFV
 70
     6
  9
$UCSBASE
  2

  9
$UCSNAME
  2

  9
$UCSORG
 10
0.0
 20
0.0
 30
0.0
  9
$UCSXDIR
 10
1.0
 20
0.0
 30
0.0
  9
$UCSYDIR
 10
0.0
 20
1.0
 30
0.0
  9
$UCSORTHOREF
  2

  9
$UCSORTHOVIEW
 70
     0
  9
$UCSORGTOP
 10
0.0
 20
0.0
 30
0.0
  9
$UCSORGBOTTOM
 10
0.0
 20
0.0
 30
0.0
  9
$UCSORGLEFT
 10
0.0
 20
0.0
 30
0.0
  9
$UCSORGRIGHT
 10
0.0
 20
0.0
 30
0.0
  9
$UCSORGFRONT
 10
0.0
 20
0.0
 30
0.0
  9
$UCSORGBACK
 10
0.0
 20
0.0
 30
0.0
  9
$PUCSBASE
  2

  9
$PUCSNAME
  2

  9
$PUCSORG
 10
0.0
 20
0.0
 30
0.0
  9
$PUCSXDIR
 10
1.0
 20
0.0
 30
0.0
  9
$PUCSYDIR
 10
0.0
 20
1.0
 30
0.0
  9
$PUCSORTHOREF
  2

  9
$PUCSORTHOVIEW
 70
     0
  9
$PUCSORGTOP
 10
0.0
 20
0.0
 30
0.0
  9
$PUCSORGBOTTOM
 10
0.0
 20
0.0
 30
0.0
  9
$PUCSORGLEFT
 10
0.0
 20
0.0
 30
0.0
  9
$PUCSORGRIGHT
 10
0.0
 20
0.0
 30
0.0
  9
$PUCSORGFRONT
 10
0.0
 20
0.0
 30
0.0
  9
$PUCSORGBACK
 10
0.0
 20
0.0
 30
0.0
  9
$USERI1
 70
     0
  9
$USERI2
 70
     0
  9
$USERI3
 70
     0
  9
$USERI4
 70
     0
  9
$USERI5
 70
     0
  9
$USERR1
 40
0.0
  9
$USERR2
 40
0.0
  9
$USERR3
 40
0.0
  9
$USERR4
 40
0.0
  9
$USERR5
 40
0.0
  9
$WORLDVIEW
 70
     1
  9
$SHADEDGE
 70
     3
  9
$SHADEDIF
 70
    70
  9
$TILEMODE
 70
     1
  9
$MAXACTVP
 70
    64
  9
$PINSBASE
 10
0.0
 20
0.0
 30
0.0
  9
$PLIMCHECK
 70
     0
  9
$PEXTMIN
 10
1.000000000000000E+20
 20
1.000000000000000E+20
 30
1.000000000000000E+20
  9
$PEXTMAX
 10
-1.000000000000000E+20
 20
-1.000000000000000E+20
 30
-1.000000000000000E+20
  9
$PLIMMIN
 10
0.0
 20
0.0
  9
$PLIMMAX
 10
420.0
 20
297.0
  9
$UNITMODE
 70
     0
  9
$VISRETAIN
 70
     1
  9
$PLINEGEN
 70
     0
  9
$PSLTSCALE
 70
     1
  9
$TREEDEPTH
 70
  3020
  9
$CMLSTYLE
  2
Standard
  9
$CMLJUST
 70
     0
  9
$CMLSCALE
 40
20.0
  9
$PROXYGRAPHICS
 70
     1
  9
$MEASUREMENT
 70
     1
  9
$CELWEIGHT
370
    -1
  9
$ENDCAPS
280
     0
  9
$JOINSTYLE
280
     0
  9
$LWDISPLAY
290
     1
  9
$INSUNITS
 70
     4
  9
$HYPERLINKBASE
  1

  9
$STYLESHEET
  1

  9
$XEDIT
290
     0
  9
$CEPSNTYPE
380
     0
  9
$PSTYLEMODE
290
     1
  9
$FINGERPRINTGUID
  2
{4D907947-14C4-4E89-BA9C-867B1C998784}
  9
$VERSIONGUID
  2
{FAEB1C32-E019-11D5-929B-00C0DF256EC4}
  9
$EXTNAMES
290
     1
  9
$PSVPSCALE
 40
0.0
  9
$OLESTARTUP
290
     0
  9
$SORTENTS
280
   127
  9
$INDEXCTL
280
     0
  9
$HIDETEXT
280
     1
  9
$XCLIPFRAME
290
     0
  9
$HALOGAP
280
     0
  9
$OBSCOLOR
 70
   257
  9
$OBSLTYPE
280
     0
  9
$INTERSECTIONDISPLAY
280
     0
  9
$INTERSECTIONCOLOR
 70
   257
  9
$DIMASSOC
280
     2
  9
$PROJECTNAME
  1

  0
ENDSEC
  0
SECTION
  2
CLASSES
  0
CLASS
  1
ACDBDICTIONARYWDFLT
  2
AcDbDictionaryWithDefault
  3
ObjectDBX Classes
 90
        0
 91
        3
280
     0
281
     0
  0
CLASS
  1
ACDBPLACEHOLDER
  2
AcDbPlaceHolder
  3
ObjectDBX Classes
 90
        0
 91
        1
280
     0
281
     0
  0
CLASS
  1
LAYOUT
  2
AcDbLayout
  3
ObjectDBX Classes
 90
        0
 91
        1
280
     0
281
     0
  0
CLASS
  1
DICTIONARYVAR
  2
AcDbDictionaryVar
  3
ObjectDBX Classes
 90
        0
 91
        3
280
     0
281
     0
  0
CLASS
  1
TABLESTYLE
  2
AcDbTableStyle
  3
ObjectDBX Classes
 90
     2047
 91
        3
280
     0
281
     0
  0
CLASS
  1
SCALE
  2
AcDbScale
  3
ObjectDBX Classes
 90
     1153
 91
       67
280
     1
281
     0
  0
CLASS
  1
VISUALSTYLE
  2
AcDbVisualStyle
  3
ObjectDBX Classes
 90
     4095
 91
       33
280
     1
281
     0
  0
ENDSEC
  0
SECTION
  2
TABLES
  0
TABLE
  2
VPORT
  5
8
330
0
100
AcDbSymbolTable
 70
     2
  0
VPORT
  5
97
330
8
100
AcDbSymbolTableRecord
100
AcDbViewportTableRecord
  2
*Active
 70
     0
 10
0.0
 20
0.0
 11
1.0
 21
1.0
 12
103.6892058652333
 22
142.02837419441
 13
0.0
 23
0.0
 14
10.0
 24
10.0
 15
10.0
 25
10.0
 16
0.0
 26
0.0
 36
1.0
 17
0.0
 27
0.0
 37
0.0
 40
39.82704911020463
 41
1.2941176471
 42
50.0
 43
0.0
 44
0.0
 50
0.0
 51
0.0
 71
    16
 72
  2000
 73
     1
 74
     1
 75
     0
 76
     0
 77
     0
 78
     0
281
     0
 65
     0
110
0.0
120
0.0
130
0.0
111
1.0
121
0.0
131
0.0
112
0.0
122
1.0
132
0.0
 79
     0
146
0.0
  0
ENDTAB
  0
TABLE
  2
LTYPE
  5
5
330
0
100
AcDbSymbolTable
 70
     6
  0
LTYPE
  5
14
330
5
100
AcDbSymbolTableRecord
100
AcDbLinetypeTableRecord
  2
ByBlock
 70
     0
  3

 72
    65
 73
     0
 40
0.0
  0
LTYPE
  5
15
330
5
100
AcDbSymbolTableRecord
100
AcDbLinetypeTableRecord
  2
ByLayer
 70
     0
  3

 72
    65
 73
     0
 40
0.0
  0
LTYPE
  5
16
330
5
100
AcDbSymbolTableRecord
100
AcDbLinetypeTableRecord
  2
Continuous
 70
     0
  3
Solid line
 72
    65
 73
     0
 40
0.0
  0
LTYPE
  5
8B0
330
5
100
AcDbSymbolTableRecord
100
AcDbLinetypeTableRecord
  2
HIDDEN
 70
     0
  3
Hidden __ __ __ __ __ __ __ __ __ __ __ __ __ __
 72
    65
 73
     2
 40
1.905
 49
1.27
 74
     4
 75
     0
340
0
 46
1.0
 50
0.0
 44
0.0
 45
0.0
 49
-0.635
 74
     4
 75
     0
340
0
 46
1.0
 50
0.0
 44
0.0
 45
0.0
  0
LTYPE
  5
8B1
330
5
100
AcDbSymbolTableRecord
100
AcDbLinetypeTableRecord
  2
PHANTOM
 70
     0
  3
Phantom ______  __  __  ______  __  __  ______
 72
    65
 73
     6
 40
12.7
 49
6.35
 74
     4
 75
     0
340
0
 46
1.0
 50
0.0
 44
0.0
 45
0.0
 49
-1.27
 74
     4
 75
     0
340
0
 46
1.0
 50
0.0
 44
0.0
 45
0.0
 49
1.27
 74
     4
 75
     0
340
0
 46
1.0
 50
0.0
 44
0.0
 45
0.0
 49
-1.27
 74
     4
 75
     0
340
0
 46
1.0
 50
0.0
 44
0.0
 45
0.0
 49
1.27
 74
     4
 75
     0
340
0
 46
1.0
 50
0.0
 44
0.0
 45
0.0
 49
-1.27
 74
     4
 75
     0
340
0
 46
1.0
 50
0.0
 44
0.0
 45
0.0
  0
LTYPE
  5
8B2
330
5
100
AcDbSymbolTableRecord
100
AcDbLinetypeTableRecord
  2
CENTER
 70
     0
  3
Center ____ _ ____ _ ____ _ ____ _ ____ _ ____
 72
    65
 73
     4
 40
10.16
 49
6.35
 74
     4
 75
     0
340
0
 46
1.0
 50
0.0
 44
0.0
 45
0.0
 49
-1.27
 74
     4
 75
     0
340
0
 46
1.0
 50
0.0
 44
0.0
 45
0.0
 49
1.27
 74
     4
 75
     0
340
0
 46
1.0
 50
0.0
 44
0.0
 45
0.0
 49
-1.27
 74
     4
 75
     0
340
0
 46
1.0
 50
0.0
 44
0.0
 45
0.0
  0
LTYPE
  5
8B3
330
5
100
AcDbSymbolTableRecord
100
AcDbLinetypeTableRecord
  2
CENTERX2
 70
     0
  3
Center (2x) ________  __  ________  __  _____
 72
    65
 73
     4
 40
20.32
 49
12.7
 74
     4
 75
     0
340
0
 46
1.0
 50
0.0
 44
0.0
 45
0.0
 49
-2.54
 74
     4
 75
     0
340
0
 46
1.0
 50
0.0
 44
0.0
 45
0.0
 49
2.54
 74
     4
 75
     0
340
0
 46
1.0
 50
0.0
 44
0.0
 45
0.0
 49
-2.54
 74
     4
 75
     0
340
0
 46
1.0
 50
0.0
 44
0.0
 45
0.0
  0
LTYPE
  5
8B4
330
5
100
AcDbSymbolTableRecord
100
AcDbLinetypeTableRecord
  2
DOT2
 70
     0
  3
Dot (.5x) ........................................
 72
    65
 73
     2
 40
0.635
 49
0.0
 74
     4
 75
     0
340
0
 46
1.0
 50
0.0
 44
0.0
 45
0.0
 49
-0.635
 74
     4
 75
     0
340
0
 46
1.0
 50
0.0
 44
0.0
 45
0.0
  0
ENDTAB
  0
TABLE
  2
LAYER
  5
2
330
0
100
AcDbSymbolTable
 70
     2
  0
LAYER
  5
10
330
2
100
AcDbSymbolTableRecord
100
AcDbLayerTableRecord
  2
0
 70
     0
 62
     7
  6
Continuous
370
    -3
390
F
  0
LAYER
  5
25C
330
2
100
AcDbSymbolTableRecord
100
AcDbLayerTableRecord
  2
DEFPOINTS
 70
     0
 62
     7
  6
Continuous
290
     0
370
    -3
390
F
  0
ENDTAB
  0
TABLE
  2
STYLE
  5
3
330
0
100
AcDbSymbolTable
 70
     1
  0
STYLE
  5
11
330
3
100
AcDbSymbolTableRecord
100
AcDbTextStyleTableRecord
  2
Standard
 70
     0
 40
0.0
 41
1.0
 50
0.0
 71
     0
 42
2.5
  3
txt
  4
bigfont
  0
ENDTAB
  0
TABLE
  2
VIEW
  5
6
330
0
100
AcDbSymbolTable
 70
     0
  0
ENDTAB
  0
TABLE
  2
UCS
  5
7
330
0
100
AcDbSymbolTable
 70
     0
  0
ENDTAB
  0
TABLE
  2
APPID
  5
9
330
0
100
AcDbSymbolTable
 70
     1
  0
APPID
  5
12
330
9
100
AcDbSymbolTableRecord
100
AcDbRegAppTableRecord
  2
ACAD
 70
     0
  0
ENDTAB
  0
TABLE
  2
DIMSTYLE
  5
A
330
0
100
AcDbSymbolTable
 70
     2
100
AcDbDimStyleTable
  0
DIMSTYLE
105
27
330
A
100
AcDbSymbolTableRecord
100
AcDbDimStyleTableRecord
  2
Standard
 70
     0
278
     0
340
11
  0
DIMSTYLE
105
254
330
A
100
AcDbSymbolTableRecord
100
AcDbDimStyleTableRecord
  2
ISO-25
 70
     0
 41
2.5
 42
0.625
 43
3.75
 44
1.25
 73
     0
 74
     0
 77
     1
 78
     8
140
2.5
141
2.5
143
0.0393700787
147
0.625
171
     3
172
     1
271
     2
272
     2
274
     3
278
    44
283
     0
284
     8
340
11
  0
ENDTAB
  0
TABLE
  2
BLOCK_RECORD
  5
1
330
0
100
AcDbSymbolTable
 70
     1
  0
BLOCK_RECORD
  5
1F
330
1
100
AcDbSymbolTableRecord
100
AcDbBlockTableRecord
  2
*Model_Space
340
22
  0
BLOCK_RECORD
  5
73
330
1
100
AcDbSymbolTableRecord
100
AcDbBlockTableRecord
  2
*Paper_Space
340
74
  0
BLOCK_RECORD
  5
23
330
1
100
AcDbSymbolTableRecord
100
AcDbBlockTableRecord
  2
*Paper_Space0
340
26
  0
ENDTAB
  0
ENDSEC
  0
SECTION
  2
BLOCKS
  0
BLOCK
  5
20
330
1F
100
AcDbEntity
  8
0
100
AcDbBlockBegin
  2
*Model_Space
 70
     0
 71
     0
 10
0.0
 20
0.0
 30
0.0
  3
*Model_Space
  1

  0
ENDBLK
  5
21
330
1F
100
AcDbEntity
  8
0
100
AcDbBlockEnd
  0
BLOCK
  5
75
330
73
100
AcDbEntity
 67
     1
  8
0
100
AcDbBlockBegin
  2
*Paper_Space
 70
     0
 71
     0
 10
0.0
 20
0.0
 30
0.0
  3
*Paper_Space
  1

  0
ENDBLK
  5
76
330
73
100
AcDbEntity
 67
     1
  8
0
100
AcDbBlockEnd
  0
BLOCK
  5
8B5
330
23
100
AcDbEntity
  8
0
100
AcDbBlockBegin
  2
*Paper_Space0
 70
     0
 71
     0
 10
0.0
 20
0.0
 30
0.0
  3
*Paper_Space0
  1

  0
ENDBLK
  5
8B6
330
23
100
AcDbEntity
  8
0
100
AcDbBlockEnd
  0
ENDSEC
  0
SECTION
  2
ENTITIES
  0
LINE
  5
224
330
1F
100
AcDbEntity
  8
0
  6
Continuous
 62
     7
370
    15
100
AcDbLine
 10
110.1330950079116
 20
139.3732796353612
 30
0.0
 11
110.1330950079116
 21
137.8442859868885
 31
0.0
  0
LINE
  5
225
330
1F
100
AcDbEntity
  8
0
  6
Continuous
 62
     7
370
    15
100
AcDbLine
 10
107.0751086948732
 20
139.3732796353612
 30
0.0
 11
110.1330950079116
 21
139.3732796353612
 31
0.0
  0
LINE
  5
226
330
1F
100
AcDbEntity
  8
0
  6
Continuous
 62
     7
370
    15
100
AcDbLine
 10
107.0751086948732
 20
140.2906758244025
 30
0.0
 11
107.0751086948732
 21
139.3732796353612
 31
0.0
  0
LINE
  5
227
330
1F
100
AcDbEntity
  8
0
  6
Continuous
 62
     7
370
    15
100
AcDbLine
 10
109.8272962782311
 20
140.2906758244025
 30
0.0
 11
107.0751086948732
 21
140.2906758244025
 31
0.0
  0
LINE
  5
228
330
1F
100
AcDbEntity
  8
0
  6
Continuous
 62
     7
370
    15
100
AcDbLine
 10
109.8272962782311
 20
141.590319441743
 30
0.0
 11
109.8272962782311
 21
140.2906758244025
 31
0.0
  0
LINE
  5
229
330
1F
100
AcDbEntity
  8
0
  6
Continuous
 62
     7
370
    15
100
AcDbLine
 10
107.0751086948732
 20
141.590319441743
 30
0.0
 11
109.8272962782311
 21
141.590319441743
 31
0.0
  0
LINE
  5
22A
330
1F
100
AcDbEntity
  8
0
  6
Continuous
 62
     7
370
    15
100
AcDbLine
 10
107.0751086948732
 20
142.2783669115517
 30
0.0
 11
107.0751086948732
 21
141.590319441743
 31
0.0
  0
LINE
  5
22B
330
1F
100
AcDbEntity
  8
0
  6
Continuous
 62
     7
370
    15
100
AcDbLine
 10
110.0566453255266
 20
142.2783669115517
 30
0.0
 11
107.0751086948732
 21
142.2783669115517
 31
0.0
  0
LINE
  5
22C
330
1F
100
AcDbEntity
  8
0
  6
Continuous
 62
     7
370
    15
100
AcDbLine
 10
110.0566453255266
 20
143.807359248125
 30
0.0
 11
110.0566453255266
 21
142.2783669115517
 31
0.0
  0
LINE
  5
22D
330
1F
100
AcDbEntity
  8
0
  6
Continuous
 62
     7
370
    15
100
AcDbLine
 10
105.0109682533316
 20
143.807359248125
 30
0.0
 11
110.0566453255266
 21
143.807359248125
 31
0.0
  0
LINE
  5
22E
330
1F
100
AcDbEntity
  8
0
  6
Continuous
 62
     7
370
    15
100
AcDbLine
 10
105.0109682533316
 20
137.8442859868885
 30
0.0
 11
105.0109682533316
 21
143.807359248125
 31
0.0
  0
LINE
  5
22F
330
1F
100
AcDbEntity
  8
0
  6
Continuous
 62
     7
370
    15
100
AcDbLine
 10
110.1330950079116
 20
137.8442859868885
 30
0.0
 11
105.0109682533316
 21
137.8442859868885
 31
0.0
  0
SPLINE
  5
230
330
1F
100
AcDbEntity
  8
0
  6
Continuous
 62
     7
370
    15
100
AcDbSpline
210
0.0
220
0.0
230
1.0
 70
    12
 71
     3
 72
    23
 73
    19
 74
     0
 42
0.00000001
 43
0.00000001
 40
0.0
 40
0.0
 40
0.0
 40
0.0
 40
0.0746166782617757
 40
0.1452396231245584
 40
0.2121145375989247
 40
0.2757278416849984
 40
0.3368979132464424
 40
0.3960653849055024
 40
0.4543082769370383
 40
0.5119263722374726
 40
0.5693444963897655
 40
0.6264054993290882
 40
0.6837870979534147
 40
0.7422824207678052
 40
0.8027323010565831
 40
0.8655853190789474
 40
0.9311711483545428
 40
1.0
 40
1.0
 40
1.0
 40
1.0
 10
94.83360724321314
 20
143.8838093079589
 30
0.0
 41
1.0
 10
94.95673220646856
 20
143.8811959764338
 30
0.0
 41
1.0
 10
95.1963920744368
 20
143.8761091875999
 30
0.0
 41
1.0
 10
95.54492824126788
 20
143.8393549132476
 30
0.0
 41
1.0
 10
95.8711482424423
 20
143.7764188430206
 30
0.0
 41
1.0
 10
96.1752962622723
 20
143.6880958840261
 30
0.0
 41
1.0
 10
96.45743054986865
 20
143.5747615492295
 30
0.0
 41
1.0
 10
96.7178913453378
 20
143.4355990635163
 30
0.0
 41
1.0
 10
96.95521021577156
 20
143.2699177541451
 30
0.0
 41
1.0
 10
97.17026475472862
 20
143.080553511724
 30
0.0
 41
1.0
 10
97.36001935307405
 20
142.8684772716876
 30
0.0
 41
1.0
 10
97.52583851469686
 20
142.6378436878551
 30
0.0
 41
1.0
 10
97.66693219425447
 20
142.3890838810112
 30
0.0
 41
1.0
 10
97.77992828620376
 20
142.1204135268186
 30
0.0
 41
1.0
 10
97.8702311241664
 20
141.8338756043421
 30
0.0
 41
1.0
 10
97.93271055475648
 20
141.5280588756445
 30
0.0
 41
1.0
 10
97.96988760143704
 20
141.2042151313194
 30
0.0
 41
1.0
 10
97.97498780520434
 20
140.9824061821716
 30
0.0
 41
1.0
 10
97.97759943338404
 20
140.8688259158648
 30
0.0
 41
1.0
  0
SPLINE
  5
231
330
1F
100
AcDbEntity
  8
0
  6
Continuous
 62
     7
370
    15
100
AcDbSpline
210
0.0
220
0.0
230
1.0
 70
    12
 71
     3
 72
    23
 73
    19
 74
     0
 42
0.00000001
 43
0.00000001
 40
0.0
 40
0.0
 40
0.0
 40
0.0
 40
0.0716615356109916
 40
0.139553374688415
 40
0.204424285010602
 40
0.2665300300059439
 40
0.3264686073538565
 40
0.3851179139701026
 40
0.4431074899525518
 40
0.5010806939482316
 40
0.5590344502024117
 40
0.6168831782355308
 40
0.6754373176076238
 40
0.7351512760432427
 40
0.7970239690432023
 40
0.8614175434143541
 40
0.9288252740198224
 40
1.0
 40
1.0
 40
1.0
 40
1.0
 10
91.7851771256918
 20
140.8222394054482
 30
0.0
 41
1.0
 10
91.78778243515423
 20
140.9393974163397
 30
0.0
 41
1.0
 10
91.79285600390335
 20
141.1675504366775
 30
0.0
 41
1.0
 10
91.82986315400497
 20
141.500185176349
 30
0.0
 41
1.0
 10
91.89285200185287
 20
141.8128532614093
 30
0.0
 41
1.0
 10
91.98096900086567
 20
142.1059640647651
 30
0.0
 41
1.0
 10
92.09509055945495
 20
142.3789515937356
 30
0.0
 41
1.0
 10
92.23358207298573
 20
142.6329400208492
 30
0.0
 41
1.0
 10
92.40012189391747
 20
142.8655253784016
 30
0.0
 41
1.0
 10
92.58881247358678
 20
143.0788471698424
 30
0.0
 41
1.0
 10
92.80038569160928
 20
143.2694840903775
 30
0.0
 41
1.0
 10
93.03427301424554
 20
143.4333787579888
 30
0.0
 41
1.0
 10
93.28595290240378
 20
143.5742969827043
 30
0.0
 41
1.0
 10
93.55830114515845
 20
143.687896742604
 30
0.0
 41
1.0
 10
93.84976149059048
 20
143.7760012344988
 30
0.0
 41
1.0
 10
94.16042071998709
 20
143.8391474292147
 30
0.0
 41
1.0
 10
94.49067911766177
 20
143.876129214326
 30
0.0
 41
1.0
 10
94.71724500441658
 20
143.8812033015607
 30
0.0
 41
1.0
 10
94.83360724321314
 20
143.8838093079589
 30
0.0
 41
1.0
  0
SPLINE
  5
232
330
1F
100
AcDbEntity
  8
0
  6
Continuous
 62
     7
370
    15
100
AcDbSpline
210
0.0
220
0.0
230
1.0
 70
    12
 71
     3
 72
    31
 73
    27
 74
     0
 42
0.00000001
 43
0.00000001
 40
0.0
 40
0.0
 40
0.0
 40
0.0
 40
0.0489888939435592
 40
0.0956718789509515
 40
0.1406133675352524
 40
0.1836768876503387
 40
0.2249795924971233
 40
0.264950984524652
 40
0.3032279585697334
 40
0.3405263114242837
 40
0.3770492467349323
 40
0.4132153105851804
 40
0.4495657990270572
 40
0.4861336895424892
 40
0.5231457930986021
 40
0.5609591172875633
 40
0.5996174731251039
 40
0.6393197139570224
 40
0.6799242549782759
 40
0.7213189729857421
 40
0.7640701302539857
 40
0.8078702860787484
 40
0.853167594284028
 40
0.9001950624404172
 40
0.9490856021598373
 40
1.0
 40
1.0
 40
1.0
 40
1.0
 10
94.90408427179217
 20
137.7678366583862
 30
0.0
 41
1.0
 10
94.8228275721125
 20
137.7685880422102
 30
0.0
 41
1.0
 10
94.66413892842388
 20
137.7700554421956
 30
0.0
 41
1.0
 10
94.43139355504313
 20
137.7863602033211
 30
0.0
 41
1.0
 10
94.20931643358158
 20
137.8109332213024
 30
0.0
 41
1.0
 10
93.9975818578685
 20
137.8455272089753
 30
0.0
 41
1.0
 10
93.79597349479808
 20
137.8893784042704
 30
0.0
 41
1.0
 10
93.60528674834461
 20
137.9441827015233
 30
0.0
 41
1.0
 10
93.42473011190405
 20
138.0087866171182
 30
0.0
 41
1.0
 10
93.25456837711555
 20
138.0841035984653
 30
0.0
 41
1.0
 10
93.0937547759965
 20
138.1705533969939
 30
0.0
 41
1.0
 10
92.94112767578609
 20
138.2678272060376
 30
0.0
 41
1.0
 10
92.7962206137819
 20
138.3764798895662
 30
0.0
 41
1.0
 10
92.66005182436663
 20
138.4979628698175
 30
0.0
 41
1.0
 10
92.53038915365627
 20
138.6297327135005
 30
0.0
 41
1.0
 10
92.40838802309801
 20
138.7732698491179
 30
0.0
 41
1.0
 10
92.29475467275789
 20
138.9290723881383
 30
0.0
 41
1.0
 10
92.1899498370881
 20
139.0963744749774
 30
0.0
 41
1.0
 10
92.09368249430034
 20
139.2739973683139
 30
0.0
 41
1.0
 10
92.01138844700039
 20
139.4640721406936
 30
0.0
 41
1.0
 10
91.94107827416956
 20
139.6644413291859
 30
0.0
 41
1.0
 10
91.88357345442965
 20
139.8756095665061
 30
0.0
 41
1.0
 10
91.83991615904928
 20
140.0972561718458
 30
0.0
 41
1.0
 10
91.8076098116841
 20
140.3293141724643
 30
0.0
 41
1.0
 10
91.78819497448904
 20
140.5722492089569
 30
0.0
 41
1.0
 10
91.78619658317464
 20
140.7377903844481
 30
0.0
 41
1.0
 10
91.7851771256918
 20
140.8222394054482
 30
0.0
 41
1.0
  0
SPLINE
  5
233
330
1F
100
AcDbEntity
  8
0
  6
Continuous
 62
     7
370
    15
100
AcDbSpline
210
0.0
220
0.0
230
1.0
 70
    12
 71
     3
 72
    31
 73
    27
 74
     0
 42
0.00000001
 43
0.00000001
 40
0.0
 40
0.0
 40
0.0
 40
0.0
 40
0.0497627845928418
 40
0.0974505449000925
 40
0.1432079805866519
 40
0.1869090370466847
 40
0.2291702016082422
 40
0.2696862750629017
 40
0.3091830763450817
 40
0.3472379971826965
 40
0.384588994585953
 40
0.4216496928513653
 40
0.4584327203899501
 40
0.4951788286044354
 40
0.5324144432983554
 40
0.5696492824038039
 40
0.6077860744804836
 40
0.6466125461568925
 40
0.6862735214000473
 40
0.7266675248837404
 40
0.7682390276984997
 40
0.8111996227258953
 40
0.8557411107335
 40
0.9020356474818977
 40
0.9499969553229707
 40
1.0
 40
1.0
 40
1.0
 40
1.0
 10
97.97759943338404
 20
140.8688259158648
 30
0.0
 41
1.0
 10
97.9762737429005
 20
140.7863836062382
 30
0.0
 41
1.0
 10
97.97367764099333
 20
140.6249366924118
 30
0.0
 41
1.0
 10
97.95861633336136
 20
140.3880216639176
 30
0.0
 41
1.0
 10
97.93114453613951
 20
140.1623446059839
 30
0.0
 41
1.0
 10
97.89289183413848
 20
139.9473796943331
 30
0.0
 41
1.0
 10
97.84435042870149
 20
139.7434028340339
 30
0.0
 41
1.0
 10
97.78463078685397
 20
139.5496349950781
 30
0.0
 41
1.0
 10
97.71294786695604
 20
139.3674534203948
 30
0.0
 41
1.0
 10
97.63149485668221
 20
139.195203792099
 30
0.0
 41
1.0
 10
97.53889717030921
 20
139.0333205261321
 30
0.0
 41
1.0
 10
97.43644102694836
 20
138.8799785229966
 30
0.0
 41
1.0
 10
97.32208583971483
 20
138.7366222839829
 30
0.0
 41
1.0
 10
97.19889675998742
 20
138.6003667545763
 30
0.0
 41
1.0
 10
97.06382754513447
 20
138.4747758453387
 30
0.0
 41
1.0
 10
96.91960569113354
 20
138.3561761959666
 30
0.0
 41
1.0
 10
96.76396329011324
 20
138.2483226862309
 30
0.0
 41
1.0
 10
96.5991998529553
 20
138.1471330105086
 30
0.0
 41
1.0
 10
96.42343455326716
 20
138.0577743872837
 30
0.0
 41
1.0
 10
96.23743869277183
 20
137.9797855015071
 30
0.0
 41
1.0
 10
96.04093935800867
 20
137.9141822720048
 30
0.0
 41
1.0
 10
95.833769452353
 20
137.8605473833732
 30
0.0
 41
1.0
 10
95.61589540340711
 20
137.8188700580413
 30
0.0
 41
1.0
 10
95.38772199515945
 20
137.7894518534511
 30
0.0
 41
1.0
 10
95.14926487452625
 20
137.7710703427098
 30
0.0
 41
1.0
 10
94.98693885236092
 20
137.7689294265553
 30
0.0
 41
1.0
 10
94.90408427179217
 20
137.7678366583862
 30
0.0
 41
1.0
  0
LINE
  5
234
330
1F
100
AcDbEntity
  8
0
  6
Continuous
 62
     7
370
    15
100
AcDbLine
 10
101.0355854232593
 20
140.0613257932703
 30
0.0
 11
101.0355854232593
 21
137.8442859868885
 31
0.0
  0
LINE
  5
235
330
1F
100
AcDbEntity
  8
0
  6
Continuous
 62
     7
370
    15
100
AcDbLine
 10
101.8681698000324
 20
140.0613257932703
 30
0.0
 11
101.0355854232593
 21
140.0613257932703
 31
0.0
  0
SPLINE
  5
236
330
1F
100
AcDbEntity
  8
0
  6
Continuous
 62
     7
370
    15
100
AcDbSpline
210
0.0
220
0.0
230
1.0
 70
    12
 71
     3
 72
    23
 73
    19
 74
     0
 42
0.00000001
 43
0.00000001
 40
0.0
 40
0.0
 40
0.0
 40
0.0
 40
0.0628288858140446
 40
0.1226488791384478
 40
0.1802468151811629
 40
0.2361463836758321
 40
0.2908986706571264
 40
0.3454010024432593
 40
0.4001251983617122
 40
0.4559311631083527
 40
0.512788587177787
 40
0.5713806592401267
 40
0.6327225473309942
 40
0.6973913465890008
 40
0.7657839460955371
 40
0.8390120682037053
 40
0.9168404376265044
 40
1.0
 40
1.0
 40
1.0
 40
1.0
 10
104.1700217410764
 20
141.9773459586
 30
0.0
 41
1.0
 10
104.1687288660773
 20
141.9059713011772
 30
0.0
 41
1.0
 10
104.1662050322157
 20
141.7666401381564
 30
0.0
 41
1.0
 10
104.1373894358998
 20
141.5635783336571
 30
0.0
 41
1.0
 10
104.09348365252
 20
141.3715982331095
 30
0.0
 41
1.0
 10
104.0332197918339
 20
141.1898928544465
 30
0.0
 41
1.0
 10
103.9521851244083
 20
141.0203005871474
 30
0.0
 41
1.0
 10
103.853631122037
 20
140.8619631156456
 30
0.0
 41
1.0
 10
103.7381738507634
 20
140.7139587698718
 30
0.0
 41
1.0
 10
103.6054892192433
 20
140.5773856878434
 30
0.0
 41
1.0
 10
103.4542116358399
 20
140.4543940635714
 30
0.0
 41
1.0
 10
103.282653001938
 20
140.3492950629091
 30
0.0
 41
1.0
 10
103.0929510631981
 20
140.2592575777643
 30
0.0
 41
1.0
 10
102.8839239210465
 20
140.1873272266087
 30
0.0
 41
1.0
 10
102.65668883086
 20
140.1295388088989
 30
0.0
 41
1.0
 10
102.4104412373369
 20
140.089983737312
 30
0.0
 41
1.0
 10
102.1453796497445
 20
140.0660144312523
 30
0.0
 41
1.0
 10
101.9625911372307
 20
140.0629232009288
 30
0.0
 41
1.0
 10
101.8681703161298
 20
140.061326401976
 30
0.0
 41
1.0
  0
SPLINE
  5
237
330
1F
100
AcDbEntity
  8
0
  6
Continuous
 62
     7
370
    15
100
AcDbSpline
210
0.0
220
0.0
230
1.0
 70
    12
 71
     3
 72
    23
 73
    19
 74
     0
 42
0.00000001
 43
0.00000001
 40
0.0
 40
0.0
 40
0.0
 40
0.0
 40
0.0806854697013983
 40
0.1568332963511635
 40
0.2280032767993814
 40
0.2953314248087543
 40
0.3588224349291773
 40
0.4193878947479587
 40
0.4775640965468975
 40
0.5343385512095733
 40
0.5900533914460497
 40
0.6454274649370221
 40
0.7004343627350985
 40
0.7561630933255313
 40
0.8134606212415723
 40
0.8730705378870666
 40
0.9350485051210807
 40
1.0
 40
1.0
 40
1.0
 40
1.0
 10
102.0557108837046
 20
143.8073596498392
 30
0.0
 41
1.0
 10
102.1413808618997
 20
143.8062798544665
 30
0.0
 41
1.0
 10
102.3079028531381
 20
143.8041809899705
 30
0.0
 41
1.0
 10
102.5489650982599
 20
143.7795554752128
 30
0.0
 41
1.0
 10
102.7737243749385
 20
143.7415620650848
 30
0.0
 41
1.0
 10
102.9822332046306
 20
143.6903174300028
 30
0.0
 41
1.0
 10
103.1734869582176
 20
143.6206320021671
 30
0.0
 41
1.0
 10
103.3475817979457
 20
143.5355965793425
 30
0.0
 41
1.0
 10
103.5057351450281
 20
143.436323770744
 30
0.0
 41
1.0
 10
103.6460268331869
 20
143.3209418136492
 30
0.0
 41
1.0
 10
103.7695599488688
 20
143.1920976455814
 30
0.0
 41
1.0
 10
103.8778580020253
 20
143.0524465195763
 30
0.0
 41
1.0
 10
103.9674872547005
 20
142.9001811148936
 30
0.0
 41
1.0
 10
104.0425682555277
 20
142.7380176833641
 30
0.0
 41
1.0
 10
104.0993284338393
 20
142.5634158030021
 30
0.0
 41
1.0
 10
104.1415363218292
 20
142.3780229002881
 30
0.0
 41
1.0
 10
104.1650732855574
 20
142.1810215946198
 30
0.0
 41
1.0
 10
104.1683466942748
 20
142.0462899394789
 30
0.0
 41
1.0
 10
104.1700217410764
 20
141.9773459586
 30
0.0
 41
1.0
  0
LINE
  5
238
330
1F
100
AcDbEntity
  8
0
  6
Continuous
 62
     7
370
    15
100
AcDbLine
 10
98.97144563763226
 20
143.807359248125
 30
0.0
 11
102.0557108218512
 21
143.807359248125
 31
0.0
  0
LINE
  5
239
330
1F
100
AcDbEntity
  8
0
  6
Continuous
 62
     7
370
    15
100
AcDbLine
 10
98.97144563763226
 20
137.8442859868885
 30
0.0
 11
98.97144563763226
 21
143.807359248125
 31
0.0
  0
LINE
  5
23A
330
1F
100
AcDbEntity
  8
0
  6
Continuous
 62
     7
370
    15
100
AcDbLine
 10
101.0355854232593
 20
137.8442859868885
 30
0.0
 11
98.97144563763226
 21
137.8442859868885
 31
0.0
  0
LINE
  5
23B
330
1F
100
AcDbEntity
  8
0
  6
Continuous
 62
     7
370
    15
100
AcDbLine
 10
112.9617324171907
 20
141.0181420929358
 30
0.0
 11
112.9617324171907
 21
137.8442859868885
 31
0.0
  0
LINE
  5
23C
330
1F
100
AcDbEntity
  8
0
  6
Continuous
 62
     7
370
    15
100
AcDbLine
 10
114.9076151713658
 20
137.8442859868885
 30
0.0
 11
112.9617324171907
 21
141.0181420929358
 31
0.0
  0
LINE
  5
23D
330
1F
100
AcDbEntity
  8
0
  6
Continuous
 62
     7
370
    15
100
AcDbLine
 10
116.7842154110347
 20
137.8442859868885
 30
0.0
 11
114.9076151713658
 21
137.8442859868885
 31
0.0
  0
LINE
  5
23E
330
1F
100
AcDbEntity
  8
0
  6
Continuous
 62
     7
370
    15
100
AcDbLine
 10
116.7842154110347
 20
143.807359248125
 30
0.0
 11
116.7842154110347
 21
137.8442859868885
 31
0.0
  0
LINE
  5
23F
330
1F
100
AcDbEntity
  8
0
  6
Continuous
 62
     7
370
    15
100
AcDbLine
 10
114.8729738423797
 20
143.807359248125
 30
0.0
 11
116.7842154110347
 21
143.807359248125
 31
0.0
  0
LINE
  5
240
330
1F
100
AcDbEntity
  8
0
  6
Continuous
 62
     7
370
    15
100
AcDbLine
 10
114.8729738423797
 20
140.6167808501955
 30
0.0
 11
114.8729738423797
 21
143.807359248125
 31
0.0
  0
LINE
  5
241
330
1F
100
AcDbEntity
  8
0
  6
Continuous
 62
     7
370
    15
100
AcDbLine
 10
112.8996170707745
 20
143.807359248125
 30
0.0
 11
114.8729738423797
 21
140.6167808501955
 31
0.0
  0
LINE
  5
242
330
1F
100
AcDbEntity
  8
0
  6
Continuous
 62
     7
370
    15
100
AcDbLine
 10
111.0504910330623
 20
143.807359248125
 30
0.0
 11
112.8996170707745
 21
143.807359248125
 31
0.0
  0
LINE
  5
243
330
1F
100
AcDbEntity
  8
0
  6
Continuous
 62
     7
370
    15
100
AcDbLine
 10
111.0504910330623
 20
137.8442859868885
 30
0.0
 11
111.0504910330623
 21
143.807359248125
 31
0.0
  0
LINE
  5
244
330
1F
100
AcDbEntity
  8
0
  6
Continuous
 62
     7
370
    15
100
AcDbLine
 10
112.9617324171907
 20
137.8442859868885
 30
0.0
 11
111.0504910330623
 21
137.8442859868885
 31
0.0
  0
SPLINE
  5
245
330
1F
100
AcDbEntity
  8
0
  6
Continuous
 62
     7
370
    15
100
AcDbSpline
210
0.0
220
0.0
230
1.0
 70
    12
 71
     3
 72
    23
 73
    19
 74
     0
 42
0.00000001
 43
0.00000001
 40
0.0
 40
0.0
 40
0.0
 40
0.0
 40
0.0587011747716435
 40
0.1146843841124339
 40
0.1677660503782789
 40
0.2187460935753748
 40
0.2683938202608237
 40
0.3175240891897949
 40
0.3663864298418217
 40
0.4160903827363264
 40
0.468200232223331
 40
0.5251847883441946
 40
0.5871113944362895
 40
0.6552054397149727
 40
0.7306602125096716
 40
0.8126657532688617
 40
0.9027336921483994
 40
1.0
 40
1.0
 40
1.0
 40
1.0
 10
94.84555250229432
 20
139.2968298207795
 30
0.0
 41
1.0
 10
94.88981938408847
 20
139.2974610177192
 30
0.0
 41
1.0
 10
94.97630351485574
 20
139.298694186094
 30
0.0
 41
1.0
 10
95.10165392952798
 20
139.3166041100907
 30
0.0
 41
1.0
 10
95.2198329971233
 20
139.3415840018008
 30
0.0
 41
1.0
 10
95.32906933766326
 20
139.3808957404361
 30
0.0
 41
1.0
 10
95.43155071542087
 20
139.4284696898506
 30
0.0
 41
1.0
 10
95.52646156219927
 20
139.4871013014939
 30
0.0
 41
1.0
 10
95.61303772694158
 20
139.5573923181904
 30
0.0
 41
1.0
 10
95.69326893547517
 20
139.6380539641164
 30
0.0
 41
1.0
 10
95.76535438947586
 20
139.7341775283267
 30
0.0
 41
1.0
 10
95.82524624371152
 20
139.8487274393262
 30
0.0
 41
1.0
 10
95.87679770218008
 20
139.980108978838
 30
0.0
 41
1.0
 10
95.91774692850072
 20
140.1296155129525
 30
0.0
 41
1.0
 10
95.95133786600206
 20
140.2963609256636
 30
0.0
 41
1.0
 10
95.97271362031007
 20
140.4817590200018
 30
0.0
 41
1.0
 10
95.9875549156517
 20
140.6842284921207
 30
0.0
 41
1.0
 10
95.98910401191857
 20
140.8253940975936
 30
0.0
 41
1.0
 10
95.989908322273
 20
140.8986890635678
 30
0.0
 41
1.0
  0
SPLINE
  5
246
330
1F
100
AcDbEntity
  8
0
  6
Continuous
 62
     7
370
    15
100
AcDbSpline
210
0.0
220
0.0
230
1.0
 70
    12
 71
     3
 72
    23
 73
    19
 74
     0
 42
0.00000001
 43
0.00000001
 40
0.0
 40
0.0
 40
0.0
 40
0.0
 40
0.0963674731515513
 40
0.1850790126112379
 40
0.2674701231894289
 40
0.3423915136427662
 40
0.4117353010919495
 40
0.4751395223334368
 40
0.5336380719689092
 40
0.588738892076976
 40
0.640928559176457
 40
0.6917126007360614
 40
0.7414067630479801
 40
0.7912953614254504
 40
0.8412125829771373
 40
0.8923175034941173
 40
0.9453039133258337
 40
1.0
 40
1.0
 40
1.0
 40
1.0
 10
93.77286823680285
 20
140.8222394054482
 30
0.0
 41
1.0
 10
93.77364315529248
 20
140.7541149276592
 30
0.0
 41
1.0
 10
93.77513142871307
 20
140.6232781352075
 30
0.0
 41
1.0
 10
93.79035991229776
 20
140.4347808017866
 30
0.0
 41
1.0
 10
93.81111184692428
 20
140.2619771168478
 30
0.0
 41
1.0
 10
93.84564495506537
 20
140.1053936480633
 30
0.0
 41
1.0
 10
93.88597767028968
 20
139.9640613419461
 30
0.0
 41
1.0
 10
93.93790676208694
 20
139.8390119977107
 30
0.0
 41
1.0
 10
93.99701227352088
 20
139.728380924478
 30
0.0
 41
1.0
 10
94.06820023042341
 20
139.6346457556332
 30
0.0
 41
1.0
 10
94.14752414558967
 20
139.5557787348104
 30
0.0
 41
1.0
 10
94.22941253002995
 20
139.4851760802586
 30
0.0
 41
1.0
 10
94.31925865591899
 20
139.4278660360851
 30
0.0
 41
1.0
 10
94.41352198579074
 20
139.3798210393626
 30
0.0
 41
1.0
 10
94.51366569207173
 20
139.3422817231454
 30
0.0
 41
1.0
 10
94.61959123971445
 20
139.3166701248765
 30
0.0
 41
1.0
 10
94.73067316214915
 20
139.2987964211966
 30
0.0
 41
1.0
 10
94.8068562024339
 20
139.2974922563344
 30
0.0
 41
1.0
 10
94.84555250229432
 20
139.2968298207795
 30
0.0
 41
1.0
  0
SPLINE
  5
247
330
1F
100
AcDbEntity
  8
0
  6
Continuous
 62
     7
370
    15
100
AcDbSpline
210
0.0
220
0.0
230
1.0
 70
    12
 71
     3
 72
    23
 73
    19
 74
     0
 42
0.00000001
 43
0.00000001
 40
0.0
 40
0.0
 40
0.0
 40
0.0
 40
0.0526798605388381
 40
0.1042258291236691
 40
0.1539147260718564
 40
0.2029972625006342
 40
0.252102631810196
 40
0.30154599044379
 40
0.35255795131273
 40
0.4049818461836626
 40
0.4603299593483123
 40
0.519365656179961
 40
0.5830544362291085
 40
0.6527094393211763
 40
0.7290739292742344
 40
0.8123959745449522
 40
0.902634255595702
 40
1.0
 40
1.0
 40
1.0
 40
1.0
 10
94.82882913958063
 20
142.3548161455657
 30
0.0
 41
1.0
 10
94.79172563323415
 20
142.3541323920722
 30
0.0
 41
1.0
 10
94.71831724390269
 20
142.3527796023333
 30
0.0
 41
1.0
 10
94.61118140104757
 20
142.3350193307661
 30
0.0
 41
1.0
 10
94.50850917763083
 20
142.3091383965695
 30
0.0
 41
1.0
 10
94.41106045407848
 20
142.2718526784599
 30
0.0
 41
1.0
 10
94.3189728364804
 20
142.2234755221782
 30
0.0
 41
1.0
 10
94.23043371315833
 20
142.1661379456532
 30
0.0
 41
1.0
 10
94.14871490495356
 20
142.0958887712792
 30
0.0
 41
1.0
 10
94.06932323232381
 20
142.0170342490422
 30
0.0
 41
1.0
 10
93.9984064053675
 20
141.9229364965849
 30
0.0
 41
1.0
 10
93.9376145196958
 20
141.8130132676356
 30
0.0
 41
1.0
 10
93.88611936804955
 20
141.6875170547938
 30
0.0
 41
1.0
 10
93.84525839060919
 20
141.5455510566336
 30
0.0
 41
1.0
 10
93.8113232269979
 20
141.3876194206099
 30
0.0
 41
1.0
 10
93.79024676812817
 20
141.2128968389933
 30
0.0
 41
1.0
 10
93.77519246300301
 20
141.0227844735365
 30
0.0
 41
1.0
 10
93.773662356173
 20
140.8907597255182
 30
0.0
 41
1.0
 10
93.77286823680285
 20
140.8222394054482
 30
0.0
 41
1.0
  0
SPLINE
  5
248
330
1F
100
AcDbEntity
  8
0
  6
Continuous
 62
     7
370
    15
100
AcDbSpline
210
0.0
220
0.0
230
1.0
 70
    12
 71
     3
 72
    23
 73
    19
 74
     0
 42
0.00000001
 43
0.00000001
 40
0.0
 40
0.0
 40
0.0
 40
0.0
 40
0.0872130239934867
 40
0.1684905224036937
 40
0.2442268047459544
 40
0.3146331599812057
 40
0.379912049451752
 40
0.4415925122481918
 40
0.4996667720944789
 40
0.5553633971837133
 40
0.6094548930361673
 40
0.6623397353312489
 40
0.7154037475657717
 40
0.7689928210927831
 40
0.8235994995361172
 40
0.8796726009023841
 40
0.9386254924914766
 40
1.0
 40
1.0
 40
1.0
 40
1.0
 10
95.989908322273
 20
140.8986890635678
 30
0.0
 41
1.0
 10
95.98901069755789
 20
140.9604277437216
 30
0.0
 41
1.0
 10
95.98727653848128
 20
141.0797033059631
 30
0.0
 41
1.0
 10
95.97348155565717
 20
141.2522440008038
 30
0.0
 41
1.0
 10
95.94781078381756
 20
141.4112547735897
 30
0.0
 41
1.0
 10
95.91587516543312
 20
141.5576941322042
 30
0.0
 41
1.0
 10
95.87073893925519
 20
141.690134266154
 30
0.0
 41
1.0
 10
95.81822808866241
 20
141.8104694416625
 30
0.0
 41
1.0
 10
95.75246668799414
 20
141.9162454092634
 30
0.0
 41
1.0
 10
95.67954442092555
 20
142.0103469327381
 30
0.0
 41
1.0
 10
95.59791137073246
 20
142.0920480375862
 30
0.0
 41
1.0
 10
95.50828944239632
 20
142.1617297167547
 30
0.0
 41
1.0
 10
95.41248266048781
 20
142.2218656082231
 30
0.0
 41
1.0
 10
95.30928837941813
 20
142.2714547086651
 30
0.0
 41
1.0
 10
95.19853032209637
 20
142.3075397079792
 30
0.0
 41
1.0
 10
95.0817197704991
 20
142.3361329886022
 30
0.0
 41
1.0
 10
94.95741153395988
 20
142.3508120363536
 30
0.0
 41
1.0
 10
94.8722611611631
 20
142.3534636543591
 30
0.0
 41
1.0
 10
94.82882913958063
 20
142.3548161455657
 30
0.0
 41
1.0
  0
SPLINE
  5
249
330
1F
100
AcDbEntity
  8
0
  6
Continuous
 62
     7
370
    15
100
AcDbSpline
210
0.0
220
0.0
230
1.0
 70
    12
 71
     3
 72
    19
 73
    15
 74
     0
 42
0.00000001
 43
0.00000001
 40
0.0
 40
0.0
 40
0.0
 40
0.0
 40
0.1049865788993743
 40
0.2050127789369493
 40
0.3033840195569595
 40
0.4044364469544622
 40
0.4581746398636162
 40
0.5153361318849887
 40
0.5784322412591129
 40
0.6479912125752543
 40
0.7244297551612873
 40
0.8074804270819675
 40
0.8996097361563986
 40
1.0
 40
1.0
 40
1.0
 40
1.0
 10
102.1823306299653
 20
141.928370396367
 30
0.0
 41
1.0
 10
102.18083423028
 20
141.9676294587815
 30
0.0
 41
1.0
 10
102.1779121324166
 20
142.0442926815327
 30
0.0
 41
1.0
 10
102.1449950599427
 20
142.1537141229757
 30
0.0
 41
1.0
 10
102.094104794045
 20
142.253583202495
 30
0.0
 41
1.0
 10
102.0353573964921
 20
142.3286415260366
 30
0.0
 41
1.0
 10
101.9755439644095
 20
142.380615668445
 30
0.0
 41
1.0
 10
101.9208799825029
 20
142.4161355858449
 30
0.0
 41
1.0
 10
101.8555136649831
 20
142.4438738362387
 30
0.0
 41
1.0
 10
101.7812817810609
 20
142.4680689170003
 30
0.0
 41
1.0
 10
101.6974418280994
 20
142.4851334420866
 30
0.0
 41
1.0
 10
101.6045164977822
 20
142.4982757778022
 30
0.0
 41
1.0
 10
101.5020060120739
 20
142.5068120236666
 30
0.0
 41
1.0
 10
101.430195134601
 20
142.5074058225178
 30
0.0
 41
1.0
 10
101.3927490046981
 20
142.507715461805
 30
0.0
 41
1.0
  0
SPLINE
  5
24A
330
1F
100
AcDbEntity
  8
0
  6
Continuous
 62
     7
370
    15
100
AcDbSpline
210
0.0
220
0.0
230
1.0
 70
    12
 71
     3
 72
    19
 73
    15
 74
     0
 42
0.00000001
 43
0.00000001
 40
0.0
 40
0.0
 40
0.0
 40
0.0
 40
0.1011602676397751
 40
0.1943288573047252
 40
0.2788514668411839
 40
0.3569897929969036
 40
0.4278649610271425
 40
0.4925581198060199
 40
0.5511028413769692
 40
0.6052579374516411
 40
0.7064336797264379
 40
0.8017452471874693
 40
0.8983457124470124
 40
1.0
 40
1.0
 40
1.0
 40
1.0
 10
101.321077450211
 20
141.3609705900101
 30
0.0
 41
1.0
 10
101.3605045647998
 20
141.3614286957289
 30
0.0
 41
1.0
 10
101.4362440453649
 20
141.3623087167383
 30
0.0
 41
1.0
 10
101.5448028611927
 20
141.3689448205903
 30
0.0
 41
1.0
 10
101.643710791203
 20
141.3822402278769
 30
0.0
 41
1.0
 10
101.7329864305053
 20
141.4001971830642
 30
0.0
 41
1.0
 10
101.8137166284619
 20
141.4209522851769
 30
0.0
 41
1.0
 10
101.8847359972634
 20
141.4478367652745
 30
0.0
 41
1.0
 10
101.9449510050353
 20
141.4821824858468
 30
0.0
 41
1.0
 10
102.0131436955614
 20
141.5304440560234
 30
0.0
 41
1.0
 10
102.0801508481301
 20
141.6029764022074
 30
0.0
 41
1.0
 10
102.1398746048403
 20
141.7011221084168
 30
0.0
 41
1.0
 10
102.1757083303458
 20
141.8113014070462
 30
0.0
 41
1.0
 10
102.1800859988966
 20
141.8886898162503
 30
0.0
 41
1.0
 10
102.1823306299653
 20
141.928370396367
 30
0.0
 41
1.0
  0
LINE
  5
24B
330
1F
100
AcDbEntity
  8
0
  6
Continuous
 62
     7
370
    15
100
AcDbLine
 10
101.0355854232593
 20
141.36097072244
 30
0.0
 11
101.3210778568273
 21
141.36097072244
 31
0.0
  0
LINE
  5
24C
330
1F
100
AcDbEntity
  8
0
  6
Continuous
 62
     7
370
    15
100
AcDbLine
 10
101.0355854232593
 20
142.5077156308549
 30
0.0
 11
101.0355854232593
 21
141.36097072244
 31
0.0
  0
LINE
  5
24D
330
1F
100
AcDbEntity
  8
0
  6
Continuous
 62
     7
370
    15
100
AcDbLine
 10
101.392748757715
 20
142.5077156308549
 30
0.0
 11
101.0355854232593
 21
142.5077156308549
 31
0.0
  0
LINE
  5
26A
330
1F
100
AcDbEntity
  8
0
100
AcDbLine
 10
116.782403402466
 20
137.8442859868885
 30
0.0
 11
116.7842154110347
 21
137.8460979954572
 31
0.0
  0
LINE
  5
26B
330
1F
100
AcDbEntity
  8
0
100
AcDbLine
 10
116.7449267430631
 20
137.8442859868885
 30
0.0
 11
116.7842154110347
 21
137.88357465486
 31
0.0
  0
LINE
  5
26C
330
1F
100
AcDbEntity
  8
0
100
AcDbLine
 10
116.7074500836602
 20
137.8442859868885
 30
0.0
 11
116.7842154110347
 21
137.9210513142629
 31
0.0
  0
LINE
  5
26D
330
1F
100
AcDbEntity
  8
0
100
AcDbLine
 10
116.6699734242573
 20
137.8442859868885
 30
0.0
 11
116.7842154110347
 21
137.9585279736658
 31
0.0
  0
LINE
  5
26E
330
1F
100
AcDbEntity
  8
0
100
AcDbLine
 10
116.6324967648545
 20
137.8442859868885
 30
0.0
 11
116.7842154110347
 21
137.9960046330687
 31
0.0
  0
LINE
  5
26F
330
1F
100
AcDbEntity
  8
0
100
AcDbLine
 10
116.5950201054516
 20
137.8442859868885
 30
0.0
 11
116.7842154110347
 21
138.0334812924716
 31
0.0
  0
LINE
  5
270
330
1F
100
AcDbEntity
  8
0
100
AcDbLine
 10
116.5575434460487
 20
137.8442859868885
 30
0.0
 11
116.7842154110347
 21
138.0709579518745
 31
0.0
  0
LINE
  5
271
330
1F
100
AcDbEntity
  8
0
100
AcDbLine
 10
116.5200667866458
 20
137.8442859868885
 30
0.0
 11
116.7842154110347
 21
138.1084346112774
 31
0.0
  0
LINE
  5
272
330
1F
100
AcDbEntity
  8
0
100
AcDbLine
 10
116.4825901272429
 20
137.8442859868885
 30
0.0
 11
116.7842154110347
 21
138.1459112706803
 31
0.0
  0
LINE
  5
273
330
1F
100
AcDbEntity
  8
0
100
AcDbLine
 10
116.4451134678401
 20
137.8442859868885
 30
0.0
 11
116.7842154110347
 21
138.1833879300831
 31
0.0
  0
LINE
  5
274
330
1F
100
AcDbEntity
  8
0
100
AcDbLine
 10
116.4076368084371
 20
137.8442859868885
 30
0.0
 11
116.7842154110347
 21
138.220864589486
 31
0.0
  0
LINE
  5
275
330
1F
100
AcDbEntity
  8
0
100
AcDbLine
 10
116.3701601490343
 20
137.8442859868885
 30
0.0
 11
116.7842154110347
 21
138.2583412488889
 31
0.0
  0
LINE
  5
276
330
1F
100
AcDbEntity
  8
0
100
AcDbLine
 10
116.3326834896314
 20
137.8442859868885
 30
0.0
 11
116.7842154110347
 21
138.2958179082918
 31
0.0
  0
LINE
  5
277
330
1F
100
AcDbEntity
  8
0
100
AcDbLine
 10
116.2952068302285
 20
137.8442859868885
 30
0.0
 11
116.7842154110347
 21
138.3332945676947
 31
0.0
  0
LINE
  5
278
330
1F
100
AcDbEntity
  8
0
100
AcDbLine
 10
116.2577301708256
 20
137.8442859868885
 30
0.0
 11
116.7842154110347
 21
138.3707712270976
 31
0.0
  0
LINE
  5
279
330
1F
100
AcDbEntity
  8
0
100
AcDbLine
 10
116.2202535114227
 20
137.8442859868885
 30
0.0
 11
116.7842154110347
 21
138.4082478865005
 31
0.0
  0
LINE
  5
27A
330
1F
100
AcDbEntity
  8
0
100
AcDbLine
 10
116.1827768520198
 20
137.8442859868885
 30
0.0
 11
116.7842154110347
 21
138.4457245459034
 31
0.0
  0
LINE
  5
27B
330
1F
100
AcDbEntity
  8
0
100
AcDbLine
 10
116.1453001926169
 20
137.8442859868885
 30
0.0
 11
116.7842154110347
 21
138.4832012053062
 31
0.0
  0
LINE
  5
27C
330
1F
100
AcDbEntity
  8
0
100
AcDbLine
 10
116.107823533214
 20
137.8442859868885
 30
0.0
 11
116.7842154110347
 21
138.5206778647091
 31
0.0
  0
LINE
  5
27D
330
1F
100
AcDbEntity
  8
0
100
AcDbLine
 10
116.0703468738111
 20
137.8442859868885
 30
0.0
 11
116.7842154110347
 21
138.558154524112
 31
0.0
  0
LINE
  5
27E
330
1F
100
AcDbEntity
  8
0
100
AcDbLine
 10
116.0328702144083
 20
137.8442859868885
 30
0.0
 11
116.7842154110347
 21
138.5956311835149
 31
0.0
  0
LINE
  5
27F
330
1F
100
AcDbEntity
  8
0
100
AcDbLine
 10
115.9953935550054
 20
137.8442859868885
 30
0.0
 11
116.7842154110347
 21
138.6331078429178
 31
0.0
  0
LINE
  5
280
330
1F
100
AcDbEntity
  8
0
100
AcDbLine
 10
115.9579168956025
 20
137.8442859868885
 30
0.0
 11
116.7842154110347
 21
138.6705845023207
 31
0.0
  0
LINE
  5
281
330
1F
100
AcDbEntity
  8
0
100
AcDbLine
 10
115.9204402361996
 20
137.8442859868885
 30
0.0
 11
116.7842154110347
 21
138.7080611617236
 31
0.0
  0
LINE
  5
282
330
1F
100
AcDbEntity
  8
0
100
AcDbLine
 10
115.8829635767967
 20
137.8442859868885
 30
0.0
 11
116.7842154110347
 21
138.7455378211265
 31
0.0
  0
LINE
  5
283
330
1F
100
AcDbEntity
  8
0
100
AcDbLine
 10
115.8454869173938
 20
137.8442859868885
 30
0.0
 11
116.7842154110347
 21
138.7830144805294
 31
0.0
  0
LINE
  5
284
330
1F
100
AcDbEntity
  8
0
100
AcDbLine
 10
115.8080102579909
 20
137.8442859868885
 30
0.0
 11
116.7842154110347
 21
138.8204911399322
 31
0.0
  0
LINE
  5
285
330
1F
100
AcDbEntity
  8
0
100
AcDbLine
 10
115.7705335985881
 20
137.8442859868885
 30
0.0
 11
116.7842154110347
 21
138.8579677993351
 31
0.0
  0
LINE
  5
286
330
1F
100
AcDbEntity
  8
0
100
AcDbLine
 10
115.7330569391852
 20
137.8442859868885
 30
0.0
 11
116.7842154110347
 21
138.895444458738
 31
0.0
  0
LINE
  5
287
330
1F
100
AcDbEntity
  8
0
100
AcDbLine
 10
115.6955802797823
 20
137.8442859868885
 30
0.0
 11
116.7842154110347
 21
138.9329211181409
 31
0.0
  0
LINE
  5
288
330
1F
100
AcDbEntity
  8
0
100
AcDbLine
 10
115.6581036203794
 20
137.8442859868885
 30
0.0
 11
116.7842154110347
 21
138.9703977775438
 31
0.0
  0
LINE
  5
289
330
1F
100
AcDbEntity
  8
0
100
AcDbLine
 10
115.6206269609765
 20
137.8442859868885
 30
0.0
 11
116.7842154110347
 21
139.0078744369467
 31
0.0
  0
LINE
  5
28A
330
1F
100
AcDbEntity
  8
0
100
AcDbLine
 10
115.5831503015736
 20
137.8442859868885
 30
0.0
 11
116.7842154110347
 21
139.0453510963496
 31
0.0
  0
LINE
  5
28B
330
1F
100
AcDbEntity
  8
0
100
AcDbLine
 10
115.5456736421707
 20
137.8442859868885
 30
0.0
 11
116.7842154110347
 21
139.0828277557524
 31
0.0
  0
LINE
  5
28C
330
1F
100
AcDbEntity
  8
0
100
AcDbLine
 10
115.5081969827678
 20
137.8442859868885
 30
0.0
 11
116.7842154110347
 21
139.1203044151553
 31
0.0
  0
LINE
  5
28D
330
1F
100
AcDbEntity
  8
0
100
AcDbLine
 10
115.4707203233649
 20
137.8442859868885
 30
0.0
 11
116.7842154110347
 21
139.1577810745582
 31
0.0
  0
LINE
  5
28E
330
1F
100
AcDbEntity
  8
0
100
AcDbLine
 10
115.4332436639621
 20
137.8442859868885
 30
0.0
 11
116.7842154110347
 21
139.1952577339611
 31
0.0
  0
LINE
  5
28F
330
1F
100
AcDbEntity
  8
0
100
AcDbLine
 10
115.3957670045592
 20
137.8442859868885
 30
0.0
 11
116.7842154110347
 21
139.232734393364
 31
0.0
  0
LINE
  5
290
330
1F
100
AcDbEntity
  8
0
100
AcDbLine
 10
115.3582903451563
 20
137.8442859868885
 30
0.0
 11
116.7842154110347
 21
139.2702110527669
 31
0.0
  0
LINE
  5
291
330
1F
100
AcDbEntity
  8
0
100
AcDbLine
 10
115.3208136857534
 20
137.8442859868885
 30
0.0
 11
116.7842154110347
 21
139.3076877121698
 31
0.0
  0
LINE
  5
292
330
1F
100
AcDbEntity
  8
0
100
AcDbLine
 10
115.2833370263505
 20
137.8442859868885
 30
0.0
 11
116.7842154110347
 21
139.3451643715727
 31
0.0
  0
LINE
  5
293
330
1F
100
AcDbEntity
  8
0
100
AcDbLine
 10
115.2458603669477
 20
137.8442859868885
 30
0.0
 11
116.7842154110347
 21
139.3826410309755
 31
0.0
  0
LINE
  5
294
330
1F
100
AcDbEntity
  8
0
100
AcDbLine
 10
115.2083837075447
 20
137.8442859868885
 30
0.0
 11
116.7842154110347
 21
139.4201176903784
 31
0.0
  0
LINE
  5
295
330
1F
100
AcDbEntity
  8
0
100
AcDbLine
 10
115.1709070481419
 20
137.8442859868885
 30
0.0
 11
116.7842154110347
 21
139.4575943497813
 31
0.0
  0
LINE
  5
296
330
1F
100
AcDbEntity
  8
0
100
AcDbLine
 10
115.133430388739
 20
137.8442859868885
 30
0.0
 11
116.7842154110347
 21
139.4950710091842
 31
0.0
  0
LINE
  5
297
330
1F
100
AcDbEntity
  8
0
100
AcDbLine
 10
115.0959537293361
 20
137.8442859868885
 30
0.0
 11
116.7842154110347
 21
139.5325476685871
 31
0.0
  0
LINE
  5
298
330
1F
100
AcDbEntity
  8
0
100
AcDbLine
 10
115.0584770699332
 20
137.8442859868885
 30
0.0
 11
116.7842154110347
 21
139.57002432799
 31
0.0
  0
LINE
  5
299
330
1F
100
AcDbEntity
  8
0
100
AcDbLine
 10
115.0210004105303
 20
137.8442859868885
 30
0.0
 11
116.7842154110347
 21
139.6075009873929
 31
0.0
  0
LINE
  5
29A
330
1F
100
AcDbEntity
  8
0
100
AcDbLine
 10
114.9835237511274
 20
137.8442859868885
 30
0.0
 11
116.7842154110347
 21
139.6449776467958
 31
0.0
  0
LINE
  5
29B
330
1F
100
AcDbEntity
  8
0
100
AcDbLine
 10
114.9460470917245
 20
137.8442859868885
 30
0.0
 11
116.7842154110347
 21
139.6824543061987
 31
0.0
  0
LINE
  5
29C
330
1F
100
AcDbEntity
  8
0
100
AcDbLine
 10
114.9085704323217
 20
137.8442859868885
 30
0.0
 11
116.7842154110347
 21
139.7199309656015
 31
0.0
  0
LINE
  5
29D
330
1F
100
AcDbEntity
  8
0
100
AcDbLine
 10
114.8937343150689
 20
137.8669265290386
 30
0.0
 11
116.7842154110347
 21
139.7574076250044
 31
0.0
  0
LINE
  5
29E
330
1F
100
AcDbEntity
  8
0
100
AcDbLine
 10
114.8794903883361
 20
137.8901592617087
 30
0.0
 11
116.7842154110347
 21
139.7948842844073
 31
0.0
  0
LINE
  5
29F
330
1F
100
AcDbEntity
  8
0
100
AcDbLine
 10
114.8652464616032
 20
137.9133919943788
 30
0.0
 11
116.7842154110347
 21
139.8323609438102
 31
0.0
  0
LINE
  5
2A0
330
1F
100
AcDbEntity
  8
0
100
AcDbLine
 10
114.8510025348704
 20
137.9366247270488
 30
0.0
 11
116.7842154110347
 21
139.8698376032131
 31
0.0
  0
LINE
  5
2A1
330
1F
100
AcDbEntity
  8
0
100
AcDbLine
 10
114.8367586081376
 20
137.9598574597189
 30
0.0
 11
116.7842154110347
 21
139.907314262616
 31
0.0
  0
LINE
  5
2A2
330
1F
100
AcDbEntity
  8
0
100
AcDbLine
 10
114.8225146814048
 20
137.983090192389
 30
0.0
 11
116.7842154110347
 21
139.9447909220189
 31
0.0
  0
LINE
  5
2A3
330
1F
100
AcDbEntity
  8
0
100
AcDbLine
 10
114.808270754672
 20
138.006322925059
 30
0.0
 11
116.7842154110347
 21
139.9822675814218
 31
0.0
  0
LINE
  5
2A4
330
1F
100
AcDbEntity
  8
0
100
AcDbLine
 10
114.7940268279391
 20
138.0295556577291
 30
0.0
 11
116.7842154110347
 21
140.0197442408247
 31
0.0
  0
LINE
  5
2A5
330
1F
100
AcDbEntity
  8
0
100
AcDbLine
 10
114.7797829012063
 20
138.0527883903992
 30
0.0
 11
116.7842154110347
 21
140.0572209002275
 31
0.0
  0
LINE
  5
2A6
330
1F
100
AcDbEntity
  8
0
100
AcDbLine
 10
114.7655389744735
 20
138.0760211230693
 30
0.0
 11
116.7842154110347
 21
140.0946975596304
 31
0.0
  0
LINE
  5
2A7
330
1F
100
AcDbEntity
  8
0
100
AcDbLine
 10
114.7512950477407
 20
138.0992538557393
 30
0.0
 11
116.7842154110347
 21
140.1321742190333
 31
0.0
  0
LINE
  5
2A8
330
1F
100
AcDbEntity
  8
0
100
AcDbLine
 10
114.7370511210079
 20
138.1224865884094
 30
0.0
 11
116.7842154110347
 21
140.1696508784362
 31
0.0
  0
LINE
  5
2A9
330
1F
100
AcDbEntity
  8
0
100
AcDbLine
 10
114.722807194275
 20
138.1457193210794
 30
0.0
 11
116.7842154110347
 21
140.2071275378391
 31
0.0
  0
LINE
  5
2AA
330
1F
100
AcDbEntity
  8
0
100
AcDbLine
 10
114.7085632675423
 20
138.1689520537495
 30
0.0
 11
116.7842154110347
 21
140.244604197242
 31
0.0
  0
LINE
  5
2AB
330
1F
100
AcDbEntity
  8
0
100
AcDbLine
 10
114.6943193408094
 20
138.1921847864196
 30
0.0
 11
116.7842154110347
 21
140.2820808566449
 31
0.0
  0
LINE
  5
2AC
330
1F
100
AcDbEntity
  8
0
100
AcDbLine
 10
114.6800754140766
 20
138.2154175190897
 30
0.0
 11
116.7842154110347
 21
140.3195575160478
 31
0.0
  0
LINE
  5
2AD
330
1F
100
AcDbEntity
  8
0
100
AcDbLine
 10
114.6658314873438
 20
138.2386502517597
 30
0.0
 11
116.7842154110347
 21
140.3570341754507
 31
0.0
  0
LINE
  5
2AE
330
1F
100
AcDbEntity
  8
0
100
AcDbLine
 10
114.651587560611
 20
138.2618829844298
 30
0.0
 11
116.7842154110347
 21
140.3945108348535
 31
0.0
  0
LINE
  5
2AF
330
1F
100
AcDbEntity
  8
0
100
AcDbLine
 10
114.6373436338782
 20
138.2851157170999
 30
0.0
 11
116.7842154110347
 21
140.4319874942564
 31
0.0
  0
LINE
  5
2B0
330
1F
100
AcDbEntity
  8
0
100
AcDbLine
 10
114.6230997071453
 20
138.3083484497699
 30
0.0
 11
116.7842154110347
 21
140.4694641536593
 31
0.0
  0
LINE
  5
2B1
330
1F
100
AcDbEntity
  8
0
100
AcDbLine
 10
114.6088557804125
 20
138.33158118244
 30
0.0
 11
116.7842154110347
 21
140.5069408130622
 31
0.0
  0
LINE
  5
2B2
330
1F
100
AcDbEntity
  8
0
100
AcDbLine
 10
114.5946118536797
 20
138.3548139151101
 30
0.0
 11
116.7842154110347
 21
140.5444174724651
 31
0.0
  0
LINE
  5
2B3
330
1F
100
AcDbEntity
  8
0
100
AcDbLine
 10
114.5803679269469
 20
138.3780466477802
 30
0.0
 11
116.7842154110347
 21
140.581894131868
 31
0.0
  0
LINE
  5
2B4
330
1F
100
AcDbEntity
  8
0
100
AcDbLine
 10
114.5661240002141
 20
138.4012793804502
 30
0.0
 11
116.7842154110347
 21
140.6193707912709
 31
0.0
  0
LINE
  5
2B5
330
1F
100
AcDbEntity
  8
0
100
AcDbLine
 10
114.5518800734812
 20
138.4245121131203
 30
0.0
 11
116.7842154110347
 21
140.6568474506738
 31
0.0
  0
LINE
  5
2B6
330
1F
100
AcDbEntity
  8
0
100
AcDbLine
 10
114.5376361467484
 20
138.4477448457904
 30
0.0
 11
116.7842154110347
 21
140.6943241100766
 31
0.0
  0
LINE
  5
2B7
330
1F
100
AcDbEntity
  8
0
100
AcDbLine
 10
114.5233922200156
 20
138.4709775784604
 30
0.0
 11
116.7842154110347
 21
140.7318007694795
 31
0.0
  0
LINE
  5
2B8
330
1F
100
AcDbEntity
  8
0
100
AcDbLine
 10
114.5091482932828
 20
138.4942103111305
 30
0.0
 11
116.7842154110347
 21
140.7692774288824
 31
0.0
  0
LINE
  5
2B9
330
1F
100
AcDbEntity
  8
0
100
AcDbLine
 10
114.49490436655
 20
138.5174430438006
 30
0.0
 11
116.7842154110347
 21
140.8067540882853
 31
0.0
  0
LINE
  5
2BA
330
1F
100
AcDbEntity
  8
0
100
AcDbLine
 10
114.4806604398171
 20
138.5406757764706
 30
0.0
 11
116.7842154110347
 21
140.8442307476882
 31
0.0
  0
LINE
  5
2BB
330
1F
100
AcDbEntity
  8
0
100
AcDbLine
 10
114.4664165130843
 20
138.5639085091407
 30
0.0
 11
116.7842154110347
 21
140.8817074070911
 31
0.0
  0
LINE
  5
2BC
330
1F
100
AcDbEntity
  8
0
100
AcDbLine
 10
114.4521725863515
 20
138.5871412418108
 30
0.0
 11
116.7842154110347
 21
140.919184066494
 31
0.0
  0
LINE
  5
2BD
330
1F
100
AcDbEntity
  8
0
100
AcDbLine
 10
114.4379286596187
 20
138.6103739744809
 30
0.0
 11
116.7842154110347
 21
140.9566607258968
 31
0.0
  0
LINE
  5
2BE
330
1F
100
AcDbEntity
  8
0
100
AcDbLine
 10
114.4236847328859
 20
138.6336067071509
 30
0.0
 11
116.7842154110347
 21
140.9941373852997
 31
0.0
  0
LINE
  5
2BF
330
1F
100
AcDbEntity
  8
0
100
AcDbLine
 10
114.409440806153
 20
138.656839439821
 30
0.0
 11
116.7842154110347
 21
141.0316140447026
 31
0.0
  0
LINE
  5
2C0
330
1F
100
AcDbEntity
  8
0
100
AcDbLine
 10
114.3951968794202
 20
138.680072172491
 30
0.0
 11
116.7842154110347
 21
141.0690907041055
 31
0.0
  0
LINE
  5
2C1
330
1F
100
AcDbEntity
  8
0
100
AcDbLine
 10
114.3809529526874
 20
138.7033049051611
 30
0.0
 11
116.7842154110347
 21
141.1065673635084
 31
0.0
  0
LINE
  5
2C2
330
1F
100
AcDbEntity
  8
0
100
AcDbLine
 10
114.3667090259546
 20
138.7265376378312
 30
0.0
 11
116.7842154110347
 21
141.1440440229113
 31
0.0
  0
LINE
  5
2C3
330
1F
100
AcDbEntity
  8
0
100
AcDbLine
 10
114.3524650992218
 20
138.7497703705013
 30
0.0
 11
116.7842154110347
 21
141.1815206823142
 31
0.0
  0
LINE
  5
2C4
330
1F
100
AcDbEntity
  8
0
100
AcDbLine
 10
114.338221172489
 20
138.7730031031713
 30
0.0
 11
116.7842154110347
 21
141.2189973417171
 31
0.0
  0
LINE
  5
2C5
330
1F
100
AcDbEntity
  8
0
100
AcDbLine
 10
114.3239772457561
 20
138.7962358358414
 30
0.0
 11
116.7842154110347
 21
141.25647400112
 31
0.0
  0
LINE
  5
2C6
330
1F
100
AcDbEntity
  8
0
100
AcDbLine
 10
114.3097333190233
 20
138.8194685685115
 30
0.0
 11
116.7842154110347
 21
141.2939506605228
 31
0.0
  0
LINE
  5
2C7
330
1F
100
AcDbEntity
  8
0
100
AcDbLine
 10
114.2954893922905
 20
138.8427013011815
 30
0.0
 11
116.7842154110347
 21
141.3314273199257
 31
0.0
  0
LINE
  5
2C8
330
1F
100
AcDbEntity
  8
0
100
AcDbLine
 10
114.2812454655577
 20
138.8659340338516
 30
0.0
 11
116.7842154110347
 21
141.3689039793286
 31
0.0
  0
LINE
  5
2C9
330
1F
100
AcDbEntity
  8
0
100
AcDbLine
 10
114.2670015388249
 20
138.8891667665217
 30
0.0
 11
116.7842154110347
 21
141.4063806387315
 31
0.0
  0
LINE
  5
2CA
330
1F
100
AcDbEntity
  8
0
100
AcDbLine
 10
114.252757612092
 20
138.9123994991917
 30
0.0
 11
116.7842154110347
 21
141.4438572981344
 31
0.0
  0
LINE
  5
2CB
330
1F
100
AcDbEntity
  8
0
100
AcDbLine
 10
114.2385136853592
 20
138.9356322318618
 30
0.0
 11
116.7842154110347
 21
141.4813339575373
 31
0.0
  0
LINE
  5
2CC
330
1F
100
AcDbEntity
  8
0
100
AcDbLine
 10
114.2242697586264
 20
138.9588649645319
 30
0.0
 11
116.7842154110347
 21
141.5188106169402
 31
0.0
  0
LINE
  5
2CD
330
1F
100
AcDbEntity
  8
0
100
AcDbLine
 10
114.2100258318936
 20
138.9820976972019
 30
0.0
 11
116.7842154110347
 21
141.5562872763431
 31
0.0
  0
LINE
  5
2CE
330
1F
100
AcDbEntity
  8
0
100
AcDbLine
 10
114.1957819051608
 20
139.005330429872
 30
0.0
 11
116.7842154110347
 21
141.5937639357459
 31
0.0
  0
LINE
  5
2CF
330
1F
100
AcDbEntity
  8
0
100
AcDbLine
 10
114.1815379784279
 20
139.0285631625421
 30
0.0
 11
116.7842154110347
 21
141.6312405951488
 31
0.0
  0
LINE
  5
2D0
330
1F
100
AcDbEntity
  8
0
100
AcDbLine
 10
112.9597841433715
 20
137.8442859868885
 30
0.0
 11
112.9617324171907
 21
137.8462342607077
 31
0.0
  0
LINE
  5
2D1
330
1F
100
AcDbEntity
  8
0
100
AcDbLine
 10
114.1672940516951
 20
139.0517958952121
 30
0.0
 11
116.7842154110347
 21
141.6687172545517
 31
0.0
  0
LINE
  5
2D2
330
1F
100
AcDbEntity
  8
0
100
AcDbLine
 10
112.9223074839686
 20
137.8442859868885
 30
0.0
 11
112.9617324171907
 21
137.8837109201106
 31
0.0
  0
LINE
  5
2D3
330
1F
100
AcDbEntity
  8
0
100
AcDbLine
 10
114.1530501249623
 20
139.0750286278822
 30
0.0
 11
116.7842154110347
 21
141.7061939139546
 31
0.0
  0
LINE
  5
2D4
330
1F
100
AcDbEntity
  8
0
100
AcDbLine
 10
112.8848308245657
 20
137.8442859868885
 30
0.0
 11
112.9617324171907
 21
137.9211875795135
 31
0.0
  0
LINE
  5
2D5
330
1F
100
AcDbEntity
  8
0
100
AcDbLine
 10
114.1388061982295
 20
139.0982613605523
 30
0.0
 11
116.7842154110347
 21
141.7436705733575
 31
0.0
  0
LINE
  5
2D6
330
1F
100
AcDbEntity
  8
0
100
AcDbLine
 10
112.8473541651628
 20
137.8442859868885
 30
0.0
 11
112.9617324171907
 21
137.9586642389164
 31
0.0
  0
LINE
  5
2D7
330
1F
100
AcDbEntity
  8
0
100
AcDbLine
 10
114.1245622714967
 20
139.1214940932223
 30
0.0
 11
116.7842154110347
 21
141.7811472327604
 31
0.0
  0
LINE
  5
2D8
330
1F
100
AcDbEntity
  8
0
100
AcDbLine
 10
112.8098775057599
 20
137.8442859868885
 30
0.0
 11
112.9617324171907
 21
137.9961408983193
 31
0.0
  0
LINE
  5
2D9
330
1F
100
AcDbEntity
  8
0
100
AcDbLine
 10
114.1103183447638
 20
139.1447268258924
 30
0.0
 11
116.7842154110347
 21
141.8186238921633
 31
0.0
  0
LINE
  5
2DA
330
1F
100
AcDbEntity
  8
0
100
AcDbLine
 10
112.772400846357
 20
137.8442859868885
 30
0.0
 11
112.9617324171907
 21
138.0336175577222
 31
0.0
  0
LINE
  5
2DB
330
1F
100
AcDbEntity
  8
0
100
AcDbLine
 10
114.096074418031
 20
139.1679595585625
 30
0.0
 11
116.7842154110347
 21
141.8561005515662
 31
0.0
  0
LINE
  5
2DC
330
1F
100
AcDbEntity
  8
0
100
AcDbLine
 10
112.7349241869542
 20
137.8442859868885
 30
0.0
 11
112.9617324171907
 21
138.0710942171251
 31
0.0
  0
LINE
  5
2DD
330
1F
100
AcDbEntity
  8
0
100
AcDbLine
 10
114.0818304912982
 20
139.1911922912326
 30
0.0
 11
116.7842154110347
 21
141.8935772109691
 31
0.0
  0
LINE
  5
2DE
330
1F
100
AcDbEntity
  8
0
100
AcDbLine
 10
112.6974475275513
 20
137.8442859868885
 30
0.0
 11
112.9617324171907
 21
138.1085708765279
 31
0.0
  0
LINE
  5
2DF
330
1F
100
AcDbEntity
  8
0
100
AcDbLine
 10
114.0675865645654
 20
139.2144250239026
 30
0.0
 11
116.7842154110347
 21
141.9310538703719
 31
0.0
  0
LINE
  5
2E0
330
1F
100
AcDbEntity
  8
0
100
AcDbLine
 10
112.6599708681484
 20
137.8442859868885
 30
0.0
 11
112.9617324171907
 21
138.1460475359308
 31
0.0
  0
LINE
  5
2E1
330
1F
100
AcDbEntity
  8
0
100
AcDbLine
 10
114.0533426378326
 20
139.2376577565727
 30
0.0
 11
116.7842154110347
 21
141.9685305297748
 31
0.0
  0
LINE
  5
2E2
330
1F
100
AcDbEntity
  8
0
100
AcDbLine
 10
112.6224942087455
 20
137.8442859868885
 30
0.0
 11
112.9617324171907
 21
138.1835241953337
 31
0.0
  0
LINE
  5
2E3
330
1F
100
AcDbEntity
  8
0
100
AcDbLine
 10
114.0390987110997
 20
139.2608904892427
 30
0.0
 11
116.7842154110347
 21
142.0060071891777
 31
0.0
  0
LINE
  5
2E4
330
1F
100
AcDbEntity
  8
0
100
AcDbLine
 10
112.5850175493426
 20
137.8442859868885
 30
0.0
 11
112.9617324171907
 21
138.2210008547366
 31
0.0
  0
LINE
  5
2E5
330
1F
100
AcDbEntity
  8
0
100
AcDbLine
 10
114.024854784367
 20
139.2841232219128
 30
0.0
 11
116.7842154110347
 21
142.0434838485806
 31
0.0
  0
LINE
  5
2E6
330
1F
100
AcDbEntity
  8
0
100
AcDbLine
 10
112.5475408899397
 20
137.8442859868885
 30
0.0
 11
112.9617324171907
 21
138.2584775141395
 31
0.0
  0
LINE
  5
2E7
330
1F
100
AcDbEntity
  8
0
100
AcDbLine
 10
114.0106108576341
 20
139.3073559545829
 30
0.0
 11
116.7842154110347
 21
142.0809605079835
 31
0.0
  0
LINE
  5
2E8
330
1F
100
AcDbEntity
  8
0
100
AcDbLine
 10
112.5100642305368
 20
137.8442859868885
 30
0.0
 11
112.9617324171907
 21
138.2959541735424
 31
0.0
  0
LINE
  5
2E9
330
1F
100
AcDbEntity
  8
0
100
AcDbLine
 10
113.9963669309013
 20
139.330588687253
 30
0.0
 11
116.7842154110347
 21
142.1184371673864
 31
0.0
  0
LINE
  5
2EA
330
1F
100
AcDbEntity
  8
0
100
AcDbLine
 10
112.4725875711339
 20
137.8442859868885
 30
0.0
 11
112.9617324171907
 21
138.3334308329453
 31
0.0
  0
LINE
  5
2EB
330
1F
100
AcDbEntity
  8
0
100
AcDbLine
 10
113.9821230041685
 20
139.353821419923
 30
0.0
 11
116.7842154110347
 21
142.1559138267893
 31
0.0
  0
LINE
  5
2EC
330
1F
100
AcDbEntity
  8
0
100
AcDbLine
 10
112.4351109117311
 20
137.8442859868885
 30
0.0
 11
112.9617324171907
 21
138.3709074923482
 31
0.0
  0
LINE
  5
2ED
330
1F
100
AcDbEntity
  8
0
100
AcDbLine
 10
113.9678790774357
 20
139.3770541525931
 30
0.0
 11
116.7842154110347
 21
142.1933904861921
 31
0.0
  0
LINE
  5
2EE
330
1F
100
AcDbEntity
  8
0
100
AcDbLine
 10
112.3976342523282
 20
137.8442859868885
 30
0.0
 11
112.9617324171907
 21
138.408384151751
 31
0.0
  0
LINE
  5
2EF
330
1F
100
AcDbEntity
  8
0
100
AcDbLine
 10
113.9536351507028
 20
139.4002868852632
 30
0.0
 11
116.7842154110347
 21
142.230867145595
 31
0.0
  0
LINE
  5
2F0
330
1F
100
AcDbEntity
  8
0
100
AcDbLine
 10
112.3601575929253
 20
137.8442859868885
 30
0.0
 11
112.9617324171907
 21
138.4458608111539
 31
0.0
  0
LINE
  5
2F1
330
1F
100
AcDbEntity
  8
0
100
AcDbLine
 10
113.93939122397
 20
139.4235196179332
 30
0.0
 11
116.7842154110347
 21
142.2683438049979
 31
0.0
  0
LINE
  5
2F2
330
1F
100
AcDbEntity
  8
0
100
AcDbLine
 10
112.3226809335224
 20
137.8442859868885
 30
0.0
 11
112.9617324171907
 21
138.4833374705568
 31
0.0
  0
LINE
  5
2F3
330
1F
100
AcDbEntity
  8
0
100
AcDbLine
 10
113.9251472972372
 20
139.4467523506033
 30
0.0
 11
116.7842154110347
 21
142.3058204644008
 31
0.0
  0
LINE
  5
2F4
330
1F
100
AcDbEntity
  8
0
100
AcDbLine
 10
112.2852042741195
 20
137.8442859868885
 30
0.0
 11
112.9617324171907
 21
138.5208141299597
 31
0.0
  0
LINE
  5
2F5
330
1F
100
AcDbEntity
  8
0
100
AcDbLine
 10
113.9109033705044
 20
139.4699850832734
 30
0.0
 11
116.7842154110347
 21
142.3432971238037
 31
0.0
  0
LINE
  5
2F6
330
1F
100
AcDbEntity
  8
0
100
AcDbLine
 10
112.2477276147166
 20
137.8442859868885
 30
0.0
 11
112.9617324171907
 21
138.5582907893626
 31
0.0
  0
LINE
  5
2F7
330
1F
100
AcDbEntity
  8
0
100
AcDbLine
 10
113.8966594437716
 20
139.4932178159435
 30
0.0
 11
116.7842154110347
 21
142.3807737832066
 31
0.0
  0
LINE
  5
2F8
330
1F
100
AcDbEntity
  8
0
100
AcDbLine
 10
112.2102509553137
 20
137.8442859868885
 30
0.0
 11
112.9617324171907
 21
138.5957674487655
 31
0.0
  0
LINE
  5
2F9
330
1F
100
AcDbEntity
  8
0
100
AcDbLine
 10
113.8824155170388
 20
139.5164505486135
 30
0.0
 11
116.7842154110347
 21
142.4182504426095
 31
0.0
  0
LINE
  5
2FA
330
1F
100
AcDbEntity
  8
0
100
AcDbLine
 10
112.1727742959108
 20
137.8442859868885
 30
0.0
 11
112.9617324171907
 21
138.6332441081684
 31
0.0
  0
LINE
  5
2FB
330
1F
100
AcDbEntity
  8
0
100
AcDbLine
 10
113.8681715903059
 20
139.5396832812836
 30
0.0
 11
116.7842154110347
 21
142.4557271020124
 31
0.0
  0
LINE
  5
2FC
330
1F
100
AcDbEntity
  8
0
100
AcDbLine
 10
112.135297636508
 20
137.8442859868885
 30
0.0
 11
112.9617324171907
 21
138.6707207675712
 31
0.0
  0
LINE
  5
2FD
330
1F
100
AcDbEntity
  8
0
100
AcDbLine
 10
113.8539276635731
 20
139.5629160139537
 30
0.0
 11
116.7842154110347
 21
142.4932037614153
 31
0.0
  0
LINE
  5
2FE
330
1F
100
AcDbEntity
  8
0
100
AcDbLine
 10
112.0978209771051
 20
137.8442859868885
 30
0.0
 11
112.9617324171907
 21
138.7081974269742
 31
0.0
  0
LINE
  5
2FF
330
1F
100
AcDbEntity
  8
0
100
AcDbLine
 10
113.8396837368403
 20
139.5861487466237
 30
0.0
 11
114.871958108059
 21
140.6184231178424
 31
0.0
  0
LINE
  5
300
330
1F
100
AcDbEntity
  8
0
100
AcDbLine
 10
114.8729738423797
 20
140.6194388521631
 30
0.0
 11
116.7842154110347
 21
142.5306804208181
 31
0.0
  0
LINE
  5
301
330
1F
100
AcDbEntity
  8
0
100
AcDbLine
 10
112.0603443177022
 20
137.8442859868885
 30
0.0
 11
112.9617324171907
 21
138.745674086377
 31
0.0
  0
LINE
  5
302
330
1F
100
AcDbEntity
  8
0
100
AcDbLine
 10
113.8254398101075
 20
139.6093814792938
 30
0.0
 11
114.8576367006087
 21
140.641578369795
 31
0.0
  0
LINE
  5
303
330
1F
100
AcDbEntity
  8
0
100
AcDbLine
 10
114.8729738423797
 20
140.656915511566
 30
0.0
 11
116.7842154110347
 21
142.568157080221
 31
0.0
  0
LINE
  5
304
330
1F
100
AcDbEntity
  8
0
100
AcDbLine
 10
112.0228676582993
 20
137.8442859868885
 30
0.0
 11
112.9617324171907
 21
138.7831507457799
 31
0.0
  0
LINE
  5
305
330
1F
100
AcDbEntity
  8
0
100
AcDbLine
 10
113.8111958833747
 20
139.6326142119639
 30
0.0
 11
114.8433152931584
 21
140.6647336217476
 31
0.0
  0
LINE
  5
306
330
1F
100
AcDbEntity
  8
0
100
AcDbLine
 10
114.8729738423797
 20
140.6943921709689
 30
0.0
 11
116.7842154110347
 21
142.6056337396239
 31
0.0
  0
LINE
  5
307
330
1F
100
AcDbEntity
  8
0
100
AcDbLine
 10
111.9853909988964
 20
137.8442859868885
 30
0.0
 11
112.9617324171907
 21
138.8206274051828
 31
0.0
  0
LINE
  5
308
330
1F
100
AcDbEntity
  8
0
100
AcDbLine
 10
113.7969519566418
 20
139.6558469446339
 30
0.0
 11
114.8289938857081
 21
140.6878888737002
 31
0.0
  0
LINE
  5
309
330
1F
100
AcDbEntity
  8
0
100
AcDbLine
 10
114.8729738423797
 20
140.7318688303718
 30
0.0
 11
116.7842154110347
 21
142.6431103990268
 31
0.0
  0
LINE
  5
30A
330
1F
100
AcDbEntity
  8
0
100
AcDbLine
 10
111.9479143394935
 20
137.8442859868885
 30
0.0
 11
112.9617324171907
 21
138.8581040645857
 31
0.0
  0
LINE
  5
30B
330
1F
100
AcDbEntity
  8
0
100
AcDbLine
 10
113.782708029909
 20
139.679079677304
 30
0.0
 11
114.8146724782578
 21
140.7110441256527
 31
0.0
  0
LINE
  5
30C
330
1F
100
AcDbEntity
  8
0
100
AcDbLine
 10
114.8729738423797
 20
140.7693454897747
 30
0.0
 11
116.7842154110347
 21
142.6805870584297
 31
0.0
  0
LINE
  5
30D
330
1F
100
AcDbEntity
  8
0
100
AcDbLine
 10
111.9104376800906
 20
137.8442859868885
 30
0.0
 11
112.9617324171907
 21
138.8955807239886
 31
0.0
  0
LINE
  5
30E
330
1F
100
AcDbEntity
  8
0
100
AcDbLine
 10
113.7684641031762
 20
139.7023124099741
 30
0.0
 11
114.8003510708075
 21
140.7341993776053
 31
0.0
  0
LINE
  5
30F
330
1F
100
AcDbEntity
  8
0
100
AcDbLine
 10
114.8729738423797
 20
140.8068221491776
 30
0.0
 11
116.7842154110347
 21
142.7180637178326
 31
0.0
  0
LINE
  5
310
330
1F
100
AcDbEntity
  8
0
100
AcDbLine
 10
111.8729610206877
 20
137.8442859868885
 30
0.0
 11
112.9617324171907
 21
138.9330573833915
 31
0.0
  0
LINE
  5
311
330
1F
100
AcDbEntity
  8
0
100
AcDbLine
 10
113.7542201764434
 20
139.7255451426442
 30
0.0
 11
114.7860296633572
 21
140.7573546295579
 31
0.0
  0
LINE
  5
312
330
1F
100
AcDbEntity
  8
0
100
AcDbLine
 10
114.8729738423797
 20
140.8442988085804
 30
0.0
 11
116.7842154110347
 21
142.7555403772354
 31
0.0
  0
LINE
  5
313
330
1F
100
AcDbEntity
  8
0
100
AcDbLine
 10
111.8354843612849
 20
137.8442859868885
 30
0.0
 11
112.9617324171907
 21
138.9705340427944
 31
0.0
  0
LINE
  5
314
330
1F
100
AcDbEntity
  8
0
100
AcDbLine
 10
113.7399762497106
 20
139.7487778753142
 30
0.0
 11
114.7717082559069
 21
140.7805098815105
 31
0.0
  0
LINE
  5
315
330
1F
100
AcDbEntity
  8
0
100
AcDbLine
 10
114.8729738423797
 20
140.8817754679833
 30
0.0
 11
116.7842154110347
 21
142.7930170366383
 31
0.0
  0
LINE
  5
316
330
1F
100
AcDbEntity
  8
0
100
AcDbLine
 10
111.798007701882
 20
137.8442859868885
 30
0.0
 11
112.9617324171907
 21
139.0080107021972
 31
0.0
  0
LINE
  5
317
330
1F
100
AcDbEntity
  8
0
100
AcDbLine
 10
113.7257323229777
 20
139.7720106079843
 30
0.0
 11
114.7573868484566
 21
140.8036651334631
 31
0.0
  0
LINE
  5
318
330
1F
100
AcDbEntity
  8
0
100
AcDbLine
 10
114.8729738423797
 20
140.9192521273862
 30
0.0
 11
116.7842154110347
 21
142.8304936960412
 31
0.0
  0
LINE
  5
319
330
1F
100
AcDbEntity
  8
0
100
AcDbLine
 10
111.7605310424791
 20
137.8442859868885
 30
0.0
 11
112.9617324171907
 21
139.0454873616001
 31
0.0
  0
LINE
  5
31A
330
1F
100
AcDbEntity
  8
0
100
AcDbLine
 10
113.7114883962449
 20
139.7952433406543
 30
0.0
 11
114.7430654410063
 21
140.8268203854157
 31
0.0
  0
LINE
  5
31B
330
1F
100
AcDbEntity
  8
0
100
AcDbLine
 10
114.8729738423797
 20
140.9567287867891
 30
0.0
 11
116.7842154110347
 21
142.8679703554441
 31
0.0
  0
LINE
  5
31C
330
1F
100
AcDbEntity
  8
0
100
AcDbLine
 10
111.7230543830762
 20
137.8442859868885
 30
0.0
 11
112.9617324171907
 21
139.082964021003
 31
0.0
  0
LINE
  5
31D
330
1F
100
AcDbEntity
  8
0
100
AcDbLine
 10
113.6972444695121
 20
139.8184760733244
 30
0.0
 11
114.728744033556
 21
140.8499756373683
 31
0.0
  0
LINE
  5
31E
330
1F
100
AcDbEntity
  8
0
100
AcDbLine
 10
114.8729738423797
 20
140.994205446192
 30
0.0
 11
116.7842154110347
 21
142.905447014847
 31
0.0
  0
LINE
  5
31F
330
1F
100
AcDbEntity
  8
0
100
AcDbLine
 10
111.6855777236733
 20
137.8442859868885
 30
0.0
 11
112.9617324171907
 21
139.1204406804059
 31
0.0
  0
LINE
  5
320
330
1F
100
AcDbEntity
  8
0
100
AcDbLine
 10
113.6830005427793
 20
139.8417088059945
 30
0.0
 11
114.7144226261057
 21
140.8731308893209
 31
0.0
  0
LINE
  5
321
330
1F
100
AcDbEntity
  8
0
100
AcDbLine
 10
114.8729738423797
 20
141.0316821055949
 30
0.0
 11
116.7842154110347
 21
142.9429236742499
 31
0.0
  0
LINE
  5
322
330
1F
100
AcDbEntity
  8
0
100
AcDbLine
 10
111.6481010642704
 20
137.8442859868885
 30
0.0
 11
112.9617324171907
 21
139.1579173398088
 31
0.0
  0
LINE
  5
323
330
1F
100
AcDbEntity
  8
0
100
AcDbLine
 10
113.6687566160465
 20
139.8649415386646
 30
0.0
 11
114.7001012186554
 21
140.8962861412735
 31
0.0
  0
LINE
  5
324
330
1F
100
AcDbEntity
  8
0
100
AcDbLine
 10
114.8729738423797
 20
141.0691587649978
 30
0.0
 11
116.7842154110347
 21
142.9804003336528
 31
0.0
  0
LINE
  5
325
330
1F
100
AcDbEntity
  8
0
100
AcDbLine
 10
111.6106244048675
 20
137.8442859868885
 30
0.0
 11
112.9617324171907
 21
139.1953939992117
 31
0.0
  0
LINE
  5
326
330
1F
100
AcDbEntity
  8
0
100
AcDbLine
 10
113.6545126893136
 20
139.8881742713346
 30
0.0
 11
114.6857798112051
 21
140.919441393226
 31
0.0
  0
LINE
  5
327
330
1F
100
AcDbEntity
  8
0
100
AcDbLine
 10
114.8729738423797
 20
141.1066354244007
 30
0.0
 11
116.7842154110347
 21
143.0178769930557
 31
0.0
  0
LINE
  5
328
330
1F
100
AcDbEntity
  8
0
100
AcDbLine
 10
111.5731477454646
 20
137.8442859868885
 30
0.0
 11
112.9617324171907
 21
139.2328706586146
 31
0.0
  0
LINE
  5
329
330
1F
100
AcDbEntity
  8
0
100
AcDbLine
 10
113.6402687625808
 20
139.9114070040047
 30
0.0
 11
114.6714584037548
 21
140.9425966451786
 31
0.0
  0
LINE
  5
32A
330
1F
100
AcDbEntity
  8
0
100
AcDbLine
 10
114.8729738423797
 20
141.1441120838036
 30
0.0
 11
116.7842154110347
 21
143.0553536524586
 31
0.0
  0
LINE
  5
32B
330
1F
100
AcDbEntity
  8
0
100
AcDbLine
 10
111.5356710860617
 20
137.8442859868885
 30
0.0
 11
112.9617324171907
 21
139.2703473180175
 31
0.0
  0
LINE
  5
32C
330
1F
100
AcDbEntity
  8
0
100
AcDbLine
 10
113.626024835848
 20
139.9346397366748
 30
0.0
 11
114.6571369963045
 21
140.9657518971312
 31
0.0
  0
LINE
  5
32D
330
1F
100
AcDbEntity
  8
0
100
AcDbLine
 10
114.8729738423797
 20
141.1815887432064
 30
0.0
 11
116.7842154110347
 21
143.0928303118614
 31
0.0
  0
LINE
  5
32E
330
1F
100
AcDbEntity
  8
0
100
AcDbLine
 10
111.4981944266589
 20
137.8442859868885
 30
0.0
 11
112.9617324171907
 21
139.3078239774204
 31
0.0
  0
LINE
  5
32F
330
1F
100
AcDbEntity
  8
0
100
AcDbLine
 10
113.6117809091152
 20
139.9578724693448
 30
0.0
 11
114.6428155888542
 21
140.9889071490838
 31
0.0
  0
LINE
  5
330
330
1F
100
AcDbEntity
  8
0
100
AcDbLine
 10
114.8729738423797
 20
141.2190654026093
 30
0.0
 11
116.7842154110347
 21
143.1303069712643
 31
0.0
  0
LINE
  5
331
330
1F
100
AcDbEntity
  8
0
100
AcDbLine
 10
111.460717767256
 20
137.8442859868885
 30
0.0
 11
112.9617324171907
 21
139.3453006368232
 31
0.0
  0
LINE
  5
332
330
1F
100
AcDbEntity
  8
0
100
AcDbLine
 10
113.5975369823824
 20
139.9811052020149
 30
0.0
 11
114.6284941814039
 21
141.0120624010364
 31
0.0
  0
LINE
  5
333
330
1F
100
AcDbEntity
  8
0
100
AcDbLine
 10
114.8729738423797
 20
141.2565420620122
 30
0.0
 11
116.7842154110347
 21
143.1677836306672
 31
0.0
  0
LINE
  5
334
330
1F
100
AcDbEntity
  8
0
100
AcDbLine
 10
111.4232411078531
 20
137.8442859868885
 30
0.0
 11
112.9617324171907
 21
139.3827772962261
 31
0.0
  0
LINE
  5
335
330
1F
100
AcDbEntity
  8
0
100
AcDbLine
 10
113.5832930556495
 20
140.004337934685
 30
0.0
 11
114.6141727739536
 21
141.035217652989
 31
0.0
  0
LINE
  5
336
330
1F
100
AcDbEntity
  8
0
100
AcDbLine
 10
114.8729738423797
 20
141.2940187214151
 30
0.0
 11
116.7842154110347
 21
143.2052602900701
 31
0.0
  0
LINE
  5
337
330
1F
100
AcDbEntity
  8
0
100
AcDbLine
 10
111.3857644484502
 20
137.8442859868885
 30
0.0
 11
112.9617324171907
 21
139.420253955629
 31
0.0
  0
LINE
  5
338
330
1F
100
AcDbEntity
  8
0
100
AcDbLine
 10
113.5690491289167
 20
140.027570667355
 30
0.0
 11
114.5998513665033
 21
141.0583729049416
 31
0.0
  0
LINE
  5
339
330
1F
100
AcDbEntity
  8
0
100
AcDbLine
 10
114.8729738423797
 20
141.331495380818
 30
0.0
 11
116.7842154110347
 21
143.242736949473
 31
0.0
  0
LINE
  5
33A
330
1F
100
AcDbEntity
  8
0
100
AcDbLine
 10
111.3482877890473
 20
137.8442859868885
 30
0.0
 11
112.9617324171907
 21
139.4577306150319
 31
0.0
  0
LINE
  5
33B
330
1F
100
AcDbEntity
  8
0
100
AcDbLine
 10
113.5548052021839
 20
140.0508034000251
 30
0.0
 11
114.585529959053
 21
141.0815281568942
 31
0.0
  0
LINE
  5
33C
330
1F
100
AcDbEntity
  8
0
100
AcDbLine
 10
114.8729738423797
 20
141.3689720402209
 30
0.0
 11
116.7842154110347
 21
143.2802136088759
 31
0.0
  0
LINE
  5
33D
330
1F
100
AcDbEntity
  8
0
100
AcDbLine
 10
111.3108111296444
 20
137.8442859868885
 30
0.0
 11
112.9617324171907
 21
139.4952072744348
 31
0.0
  0
LINE
  5
33E
330
1F
100
AcDbEntity
  8
0
100
AcDbLine
 10
113.5405612754511
 20
140.0740361326952
 30
0.0
 11
114.5712085516027
 21
141.1046834088468
 31
0.0
  0
LINE
  5
33F
330
1F
100
AcDbEntity
  8
0
100
AcDbLine
 10
114.8729738423797
 20
141.4064486996238
 30
0.0
 11
116.7842154110347
 21
143.3176902682788
 31
0.0
  0
LINE
  5
340
330
1F
100
AcDbEntity
  8
0
100
AcDbLine
 10
111.2733344702415
 20
137.8442859868885
 30
0.0
 11
112.9617324171907
 21
139.5326839338377
 31
0.0
  0
LINE
  5
341
330
1F
100
AcDbEntity
  8
0
100
AcDbLine
 10
113.5263173487183
 20
140.0972688653652
 30
0.0
 11
114.5568871441524
 21
141.1278386607994
 31
0.0
  0
LINE
  5
342
330
1F
100
AcDbEntity
  8
0
100
AcDbLine
 10
114.8729738423797
 20
141.4439253590267
 30
0.0
 11
116.7842154110347
 21
143.3551669276817
 31
0.0
  0
LINE
  5
343
330
1F
100
AcDbEntity
  8
0
100
AcDbLine
 10
111.2358578108387
 20
137.8442859868885
 30
0.0
 11
112.9617324171907
 21
139.5701605932406
 31
0.0
  0
LINE
  5
344
330
1F
100
AcDbEntity
  8
0
100
AcDbLine
 10
113.5120734219855
 20
140.1205015980353
 30
0.0
 11
114.5425657367021
 21
141.1509939127519
 31
0.0
  0
LINE
  5
345
330
1F
100
AcDbEntity
  8
0
100
AcDbLine
 10
114.8729738423797
 20
141.4814020184295
 30
0.0
 11
116.7842154110347
 21
143.3926435870845
 31
0.0
  0
LINE
  5
346
330
1F
100
AcDbEntity
  8
0
100
AcDbLine
 10
111.1983811514358
 20
137.8442859868885
 30
0.0
 11
112.9617324171907
 21
139.6076372526435
 31
0.0
  0
LINE
  5
347
330
1F
100
AcDbEntity
  8
0
100
AcDbLine
 10
113.4978294952526
 20
140.1437343307054
 30
0.0
 11
114.5282443292518
 21
141.1741491647045
 31
0.0
  0
LINE
  5
348
330
1F
100
AcDbEntity
  8
0
100
AcDbLine
 10
114.8729738423797
 20
141.5188786778324
 30
0.0
 11
116.7842154110347
 21
143.4301202464874
 31
0.0
  0
LINE
  5
349
330
1F
100
AcDbEntity
  8
0
100
AcDbLine
 10
111.1609044920329
 20
137.8442859868885
 30
0.0
 11
112.9617324171907
 21
139.6451139120463
 31
0.0
  0
LINE
  5
34A
330
1F
100
AcDbEntity
  8
0
100
AcDbLine
 10
113.4835855685198
 20
140.1669670633754
 30
0.0
 11
114.5139229218015
 21
141.1973044166571
 31
0.0
  0
LINE
  5
34B
330
1F
100
AcDbEntity
  8
0
100
AcDbLine
 10
114.8729738423797
 20
141.5563553372353
 30
0.0
 11
116.7842154110347
 21
143.4675969058903
 31
0.0
  0
LINE
  5
34C
330
1F
100
AcDbEntity
  8
0
100
AcDbLine
 10
111.12342783263
 20
137.8442859868885
 30
0.0
 11
112.9617324171907
 21
139.6825905714492
 31
0.0
  0
LINE
  5
34D
330
1F
100
AcDbEntity
  8
0
100
AcDbLine
 10
113.469341641787
 20
140.1901997960455
 30
0.0
 11
114.4996015143512
 21
141.2204596686097
 31
0.0
  0
LINE
  5
34E
330
1F
100
AcDbEntity
  8
0
100
AcDbLine
 10
114.8729738423797
 20
141.5938319966382
 30
0.0
 11
116.7842154110347
 21
143.5050735652932
 31
0.0
  0
LINE
  5
34F
330
1F
100
AcDbEntity
  8
0
100
AcDbLine
 10
111.0859511732271
 20
137.8442859868885
 30
0.0
 11
112.9617324171907
 21
139.7200672308521
 31
0.0
  0
LINE
  5
350
330
1F
100
AcDbEntity
  8
0
100
AcDbLine
 10
113.4550977150542
 20
140.2134325287156
 30
0.0
 11
114.4852801069009
 21
141.2436149205623
 31
0.0
  0
LINE
  5
351
330
1F
100
AcDbEntity
  8
0
100
AcDbLine
 10
114.8729738423797
 20
141.6313086560411
 30
0.0
 11
116.7842154110347
 21
143.5425502246961
 31
0.0
  0
LINE
  5
352
330
1F
100
AcDbEntity
  8
0
100
AcDbLine
 10
111.0504910330623
 20
137.8463025061266
 30
0.0
 11
112.9617324171907
 21
139.757543890255
 31
0.0
  0
LINE
  5
353
330
1F
100
AcDbEntity
  8
0
100
AcDbLine
 10
113.4408537883214
 20
140.2366652613857
 30
0.0
 11
114.4709586994506
 21
141.2667701725149
 31
0.0
  0
LINE
  5
354
330
1F
100
AcDbEntity
  8
0
100
AcDbLine
 10
114.8729738423797
 20
141.668785315444
 30
0.0
 11
116.7842154110347
 21
143.580026884099
 31
0.0
  0
LINE
  5
355
330
1F
100
AcDbEntity
  8
0
100
AcDbLine
 10
111.0504910330623
 20
137.8837791655295
 30
0.0
 11
112.9617324171907
 21
139.7950205496579
 31
0.0
  0
LINE
  5
356
330
1F
100
AcDbEntity
  8
0
100
AcDbLine
 10
113.4266098615886
 20
140.2598979940557
 30
0.0
 11
114.4566372920003
 21
141.2899254244675
 31
0.0
  0
LINE
  5
357
330
1F
100
AcDbEntity
  8
0
100
AcDbLine
 10
114.8729738423797
 20
141.7062619748469
 30
0.0
 11
116.7842154110347
 21
143.6175035435019
 31
0.0
  0
LINE
  5
358
330
1F
100
AcDbEntity
  8
0
100
AcDbLine
 10
111.0504910330623
 20
137.9212558249324
 30
0.0
 11
112.9617324171907
 21
139.8324972090608
 31
0.0
  0
LINE
  5
359
330
1F
100
AcDbEntity
  8
0
100
AcDbLine
 10
113.4123659348557
 20
140.2831307267258
 30
0.0
 11
114.44231588455
 21
141.3130806764201
 31
0.0
  0
LINE
  5
35A
330
1F
100
AcDbEntity
  8
0
100
AcDbLine
 10
114.8729738423797
 20
141.7437386342498
 30
0.0
 11
116.7842154110347
 21
143.6549802029047
 31
0.0
  0
LINE
  5
35B
330
1F
100
AcDbEntity
  8
0
100
AcDbLine
 10
111.0504910330623
 20
137.9587324843353
 30
0.0
 11
112.9617324171907
 21
139.8699738684637
 31
0.0
  0
LINE
  5
35C
330
1F
100
AcDbEntity
  8
0
100
AcDbLine
 10
113.3981220081229
 20
140.3063634593959
 30
0.0
 11
114.4279944770997
 21
141.3362359283727
 31
0.0
  0
LINE
  5
35D
330
1F
100
AcDbEntity
  8
0
100
AcDbLine
 10
114.8729738423797
 20
141.7812152936526
 30
0.0
 11
116.7842154110347
 21
143.6924568623077
 31
0.0
  0
LINE
  5
35E
330
1F
100
AcDbEntity
  8
0
100
AcDbLine
 10
111.0504910330623
 20
137.9962091437382
 30
0.0
 11
112.9617324171907
 21
139.9074505278666
 31
0.0
  0
LINE
  5
35F
330
1F
100
AcDbEntity
  8
0
100
AcDbLine
 10
113.3838780813901
 20
140.3295961920659
 30
0.0
 11
114.4136730696494
 21
141.3593911803252
 31
0.0
  0
LINE
  5
360
330
1F
100
AcDbEntity
  8
0
100
AcDbLine
 10
114.8729738423797
 20
141.8186919530555
 30
0.0
 11
116.7842154110347
 21
143.7299335217105
 31
0.0
  0
LINE
  5
361
330
1F
100
AcDbEntity
  8
0
100
AcDbLine
 10
111.0504910330623
 20
138.0336858031411
 30
0.0
 11
112.9617324171907
 21
139.9449271872694
 31
0.0
  0
LINE
  5
362
330
1F
100
AcDbEntity
  8
0
100
AcDbLine
 10
113.3696341546573
 20
140.352828924736
 30
0.0
 11
114.3993516621991
 21
141.3825464322778
 31
0.0
  0
LINE
  5
363
330
1F
100
AcDbEntity
  8
0
100
AcDbLine
 10
114.8729738423797
 20
141.8561686124584
 30
0.0
 11
116.7842154110347
 21
143.7674101811134
 31
0.0
  0
LINE
  5
364
330
1F
100
AcDbEntity
  8
0
100
AcDbLine
 10
111.0504910330623
 20
138.0711624625439
 30
0.0
 11
112.9617324171907
 21
139.9824038466723
 31
0.0
  0
LINE
  5
365
330
1F
100
AcDbEntity
  8
0
100
AcDbLine
 10
113.3553902279245
 20
140.3760616574061
 30
0.0
 11
114.3850302547488
 21
141.4057016842305
 31
0.0
  0
LINE
  5
366
330
1F
100
AcDbEntity
  8
0
100
AcDbLine
 10
114.8729738423797
 20
141.8936452718613
 30
0.0
 11
116.7842154110347
 21
143.8048868405163
 31
0.0
  0
LINE
  5
367
330
1F
100
AcDbEntity
  8
0
100
AcDbLine
 10
111.0504910330623
 20
138.1086391219468
 30
0.0
 11
112.9617324171907
 21
140.0198805060752
 31
0.0
  0
LINE
  5
368
330
1F
100
AcDbEntity
  8
0
100
AcDbLine
 10
113.3411463011916
 20
140.3992943900761
 30
0.0
 11
114.3707088472985
 21
141.428856936183
 31
0.0
  0
LINE
  5
369
330
1F
100
AcDbEntity
  8
0
100
AcDbLine
 10
114.8729738423797
 20
141.9311219312642
 30
0.0
 11
116.7492111592405
 21
143.807359248125
 31
0.0
  0
LINE
  5
36A
330
1F
100
AcDbEntity
  8
0
100
AcDbLine
 10
111.0504910330623
 20
138.1461157813497
 30
0.0
 11
112.9617324171907
 21
140.0573571654781
 31
0.0
  0
LINE
  5
36B
330
1F
100
AcDbEntity
  8
0
100
AcDbLine
 10
113.3269023744588
 20
140.4225271227462
 30
0.0
 11
114.3563874398482
 21
141.4520121881356
 31
0.0
  0
LINE
  5
36C
330
1F
100
AcDbEntity
  8
0
100
AcDbLine
 10
114.8729738423797
 20
141.9685985906671
 30
0.0
 11
116.7117344998376
 21
143.807359248125
 31
0.0
  0
LINE
  5
36D
330
1F
100
AcDbEntity
  8
0
100
AcDbLine
 10
111.0504910330623
 20
138.1835924407526
 30
0.0
 11
112.9617324171907
 21
140.094833824881
 31
0.0
  0
LINE
  5
36E
330
1F
100
AcDbEntity
  8
0
100
AcDbLine
 10
113.312658447726
 20
140.4457598554163
 30
0.0
 11
114.3420660323979
 21
141.4751674400882
 31
0.0
  0
LINE
  5
36F
330
1F
100
AcDbEntity
  8
0
100
AcDbLine
 10
114.8729738423797
 20
142.00607525007
 30
0.0
 11
116.6742578404347
 21
143.807359248125
 31
0.0
  0
LINE
  5
370
330
1F
100
AcDbEntity
  8
0
100
AcDbLine
 10
111.0504910330623
 20
138.2210691001555
 30
0.0
 11
112.9617324171907
 21
140.1323104842839
 31
0.0
  0
LINE
  5
371
330
1F
100
AcDbEntity
  8
0
100
AcDbLine
 10
113.2984145209932
 20
140.4689925880863
 30
0.0
 11
114.3277446249476
 21
141.4983226920408
 31
0.0
  0
LINE
  5
372
330
1F
100
AcDbEntity
  8
0
100
AcDbLine
 10
114.8729738423797
 20
142.0435519094729
 30
0.0
 11
116.6367811810318
 21
143.807359248125
 31
0.0
  0
LINE
  5
373
330
1F
100
AcDbEntity
  8
0
100
AcDbLine
 10
111.0504910330623
 20
138.2585457595584
 30
0.0
 11
112.9617324171907
 21
140.1697871436868
 31
0.0
  0
LINE
  5
374
330
1F
100
AcDbEntity
  8
0
100
AcDbLine
 10
113.2841705942604
 20
140.4922253207564
 30
0.0
 11
114.3134232174973
 21
141.5214779439934
 31
0.0
  0
LINE
  5
375
330
1F
100
AcDbEntity
  8
0
100
AcDbLine
 10
114.8729738423797
 20
142.0810285688758
 30
0.0
 11
116.599304521629
 21
143.807359248125
 31
0.0
  0
LINE
  5
376
330
1F
100
AcDbEntity
  8
0
100
AcDbLine
 10
111.0504910330623
 20
138.2960224189613
 30
0.0
 11
112.9617324171907
 21
140.2072638030896
 31
0.0
  0
LINE
  5
377
330
1F
100
AcDbEntity
  8
0
100
AcDbLine
 10
113.2699266675275
 20
140.5154580534265
 30
0.0
 11
114.299101810047
 21
141.544633195946
 31
0.0
  0
LINE
  5
378
330
1F
100
AcDbEntity
  8
0
100
AcDbLine
 10
114.8729738423797
 20
142.1185052282786
 30
0.0
 11
116.5618278622261
 21
143.807359248125
 31
0.0
  0
LINE
  5
379
330
1F
100
AcDbEntity
  8
0
100
AcDbLine
 10
111.0504910330623
 20
138.3334990783641
 30
0.0
 11
112.9617324171907
 21
140.2447404624925
 31
0.0
  0
LINE
  5
37A
330
1F
100
AcDbEntity
  8
0
100
AcDbLine
 10
113.2556827407947
 20
140.5386907860965
 30
0.0
 11
114.2847804025967
 21
141.5677884478986
 31
0.0
  0
LINE
  5
37B
330
1F
100
AcDbEntity
  8
0
100
AcDbLine
 10
114.8729738423797
 20
142.1559818876815
 30
0.0
 11
116.5243512028232
 21
143.807359248125
 31
0.0
  0
LINE
  5
37C
330
1F
100
AcDbEntity
  8
0
100
AcDbLine
 10
111.0504910330623
 20
138.370975737767
 30
0.0
 11
112.9617324171907
 21
140.2822171218954
 31
0.0
  0
LINE
  5
37D
330
1F
100
AcDbEntity
  8
0
100
AcDbLine
 10
113.2414388140619
 20
140.5619235187666
 30
0.0
 11
114.2704589951464
 21
141.5909436998512
 31
0.0
  0
LINE
  5
37E
330
1F
100
AcDbEntity
  8
0
100
AcDbLine
 10
114.8729738423797
 20
142.1934585470844
 30
0.0
 11
116.4868745434203
 21
143.807359248125
 31
0.0
  0
LINE
  5
37F
330
1F
100
AcDbEntity
  8
0
100
AcDbLine
 10
111.0504910330623
 20
138.4084523971699
 30
0.0
 11
112.9617324171907
 21
140.3196937812983
 31
0.0
  0
LINE
  5
380
330
1F
100
AcDbEntity
  8
0
100
AcDbLine
 10
113.2271948873291
 20
140.5851562514367
 30
0.0
 11
114.2561375876961
 21
141.6140989518038
 31
0.0
  0
LINE
  5
381
330
1F
100
AcDbEntity
  8
0
100
AcDbLine
 10
114.8729738423797
 20
142.2309352064873
 30
0.0
 11
116.4493978840174
 21
143.807359248125
 31
0.0
  0
LINE
  5
382
330
1F
100
AcDbEntity
  8
0
100
AcDbLine
 10
111.0504910330623
 20
138.4459290565728
 30
0.0
 11
112.9617324171907
 21
140.3571704407012
 31
0.0
  0
LINE
  5
383
330
1F
100
AcDbEntity
  8
0
100
AcDbLine
 10
113.2129509605963
 20
140.6083889841068
 30
0.0
 11
114.2418161802458
 21
141.6372542037563
 31
0.0
  0
LINE
  5
384
330
1F
100
AcDbEntity
  8
0
100
AcDbLine
 10
114.8729738423797
 20
142.2684118658902
 30
0.0
 11
116.4119212246145
 21
143.807359248125
 31
0.0
  0
LINE
  5
385
330
1F
100
AcDbEntity
  8
0
100
AcDbLine
 10
111.0504910330623
 20
138.4834057159757
 30
0.0
 11
112.9617324171907
 21
140.3946471001041
 31
0.0
  0
LINE
  5
386
330
1F
100
AcDbEntity
  8
0
100
AcDbLine
 10
113.1987070338635
 20
140.6316217167768
 30
0.0
 11
114.2274947727956
 21
141.6604094557089
 31
0.0
  0
LINE
  5
387
330
1F
100
AcDbEntity
  8
0
100
AcDbLine
 10
114.8729738423797
 20
142.3058885252931
 30
0.0
 11
116.3744445652116
 21
143.807359248125
 31
0.0
  0
LINE
  5
388
330
1F
100
AcDbEntity
  8
0
100
AcDbLine
 10
111.0504910330623
 20
138.5208823753786
 30
0.0
 11
112.9617324171907
 21
140.432123759507
 31
0.0
  0
LINE
  5
389
330
1F
100
AcDbEntity
  8
0
100
AcDbLine
 10
113.1844631071306
 20
140.6548544494469
 30
0.0
 11
114.2131733653453
 21
141.6835647076615
 31
0.0
  0
LINE
  5
38A
330
1F
100
AcDbEntity
  8
0
100
AcDbLine
 10
114.8729738423797
 20
142.343365184696
 30
0.0
 11
116.3369679058087
 21
143.807359248125
 31
0.0
  0
LINE
  5
38B
330
1F
100
AcDbEntity
  8
0
100
AcDbLine
 10
111.0504910330623
 20
138.5583590347815
 30
0.0
 11
112.9617324171907
 21
140.4696004189099
 31
0.0
  0
LINE
  5
38C
330
1F
100
AcDbEntity
  8
0
100
AcDbLine
 10
113.1702191803978
 20
140.678087182117
 30
0.0
 11
114.1988519578949
 21
141.7067199596141
 31
0.0
  0
LINE
  5
38D
330
1F
100
AcDbEntity
  8
0
100
AcDbLine
 10
114.8729738423797
 20
142.3808418440989
 30
0.0
 11
116.2994912464059
 21
143.807359248125
 31
0.0
  0
LINE
  5
38E
330
1F
100
AcDbEntity
  8
0
100
AcDbLine
 10
111.0504910330623
 20
138.5958356941843
 30
0.0
 11
112.9617324171907
 21
140.5070770783128
 31
0.0
  0
LINE
  5
38F
330
1F
100
AcDbEntity
  8
0
100
AcDbLine
 10
113.155975253665
 20
140.701319914787
 30
0.0
 11
114.1845305504446
 21
141.7298752115667
 31
0.0
  0
LINE
  5
390
330
1F
100
AcDbEntity
  8
0
100
AcDbLine
 10
114.8729738423797
 20
142.4183185035018
 30
0.0
 11
116.262014587003
 21
143.807359248125
 31
0.0
  0
LINE
  5
391
330
1F
100
AcDbEntity
  8
0
100
AcDbLine
 10
111.0504910330623
 20
138.6333123535873
 30
0.0
 11
112.9617324171907
 21
140.5445537377156
 31
0.0
  0
LINE
  5
392
330
1F
100
AcDbEntity
  8
0
100
AcDbLine
 10
113.1417313269322
 20
140.7245526474571
 30
0.0
 11
114.1702091429944
 21
141.7530304635193
 31
0.0
  0
LINE
  5
393
330
1F
100
AcDbEntity
  8
0
100
AcDbLine
 10
114.8729738423797
 20
142.4557951629046
 30
0.0
 11
116.2245379276001
 21
143.807359248125
 31
0.0
  0
LINE
  5
394
330
1F
100
AcDbEntity
  8
0
100
AcDbLine
 10
111.0504910330623
 20
138.6707890129901
 30
0.0
 11
112.9617324171907
 21
140.5820303971185
 31
0.0
  0
LINE
  5
395
330
1F
100
AcDbEntity
  8
0
100
AcDbLine
 10
113.1274874001994
 20
140.7477853801272
 30
0.0
 11
114.1558877355441
 21
141.7761857154719
 31
0.0
  0
LINE
  5
396
330
1F
100
AcDbEntity
  8
0
100
AcDbLine
 10
114.8729738423797
 20
142.4932718223075
 30
0.0
 11
116.1870612681972
 21
143.807359248125
 31
0.0
  0
LINE
  5
397
330
1F
100
AcDbEntity
  8
0
100
AcDbLine
 10
111.0504910330623
 20
138.708265672393
 30
0.0
 11
112.9617324171907
 21
140.6195070565214
 31
0.0
  0
LINE
  5
398
330
1F
100
AcDbEntity
  8
0
100
AcDbLine
 10
113.1132434734665
 20
140.7710181127972
 30
0.0
 11
114.1415663280938
 21
141.7993409674245
 31
0.0
  0
LINE
  5
399
330
1F
100
AcDbEntity
  8
0
100
AcDbLine
 10
114.8729738423797
 20
142.5307484817104
 30
0.0
 11
116.1495846087943
 21
143.807359248125
 31
0.0
  0
LINE
  5
39A
330
1F
100
AcDbEntity
  8
0
100
AcDbLine
 10
111.0504910330623
 20
138.7457423317959
 30
0.0
 11
112.9617324171907
 21
140.6569837159243
 31
0.0
  0
LINE
  5
39B
330
1F
100
AcDbEntity
  8
0
100
AcDbLine
 10
113.0989995467337
 20
140.7942508454673
 30
0.0
 11
114.1272449206435
 21
141.8224962193771
 31
0.0
  0
LINE
  5
39C
330
1F
100
AcDbEntity
  8
0
100
AcDbLine
 10
114.8729738423797
 20
142.5682251411133
 30
0.0
 11
116.1121079493914
 21
143.807359248125
 31
0.0
  0
LINE
  5
39D
330
1F
100
AcDbEntity
  8
0
100
AcDbLine
 10
110.111558028752
 20
137.8442859868885
 30
0.0
 11
110.1330950079116
 21
137.8658229660481
 31
0.0
  0
LINE
  5
39E
330
1F
100
AcDbEntity
  8
0
100
AcDbLine
 10
111.0504910330623
 20
138.7832189911988
 30
0.0
 11
112.9617324171907
 21
140.6944603753272
 31
0.0
  0
LINE
  5
39F
330
1F
100
AcDbEntity
  8
0
100
AcDbLine
 10
113.0847556200009
 20
140.8174835781374
 30
0.0
 11
114.1129235131932
 21
141.8456514713297
 31
0.0
  0
LINE
  5
3A0
330
1F
100
AcDbEntity
  8
0
100
AcDbLine
 10
114.8729738423797
 20
142.6057018005162
 30
0.0
 11
116.0746312899885
 21
143.807359248125
 31
0.0
  0
LINE
  5
3A1
330
1F
100
AcDbEntity
  8
0
100
AcDbLine
 10
110.0740813693491
 20
137.8442859868885
 30
0.0
 11
110.1330950079116
 21
137.903299625451
 31
0.0
  0
LINE
  5
3A2
330
1F
100
AcDbEntity
  8
0
100
AcDbLine
 10
111.0504910330623
 20
138.8206956506017
 30
0.0
 11
112.9617324171907
 21
140.7319370347301
 31
0.0
  0
LINE
  5
3A3
330
1F
100
AcDbEntity
  8
0
100
AcDbLine
 10
113.0705116932681
 20
140.8407163108074
 30
0.0
 11
114.0986021057429
 21
141.8688067232822
 31
0.0
  0
LINE
  5
3A4
330
1F
100
AcDbEntity
  8
0
100
AcDbLine
 10
114.8729738423797
 20
142.6431784599191
 30
0.0
 11
116.0371546305856
 21
143.807359248125
 31
0.0
  0
LINE
  5
3A5
330
1F
100
AcDbEntity
  8
0
100
AcDbLine
 10
110.0366047099462
 20
137.8442859868885
 30
0.0
 11
110.1330950079116
 21
137.9407762848539
 31
0.0
  0
LINE
  5
3A6
330
1F
100
AcDbEntity
  8
0
100
AcDbLine
 10
111.0504910330623
 20
138.8581723100046
 30
0.0
 11
112.9617324171907
 21
140.769413694133
 31
0.0
  0
LINE
  5
3A7
330
1F
100
AcDbEntity
  8
0
100
AcDbLine
 10
113.0562677665353
 20
140.8639490434775
 30
0.0
 11
114.0842806982926
 21
141.8919619752348
 31
0.0
  0
LINE
  5
3A8
330
1F
100
AcDbEntity
  8
0
100
AcDbLine
 10
114.8729738423797
 20
142.680655119322
 30
0.0
 11
115.9996779711828
 21
143.807359248125
 31
0.0
  0
LINE
  5
3A9
330
1F
100
AcDbEntity
  8
0
100
AcDbLine
 10
109.9991280505434
 20
137.8442859868885
 30
0.0
 11
110.1330950079116
 21
137.9782529442568
 31
0.0
  0
LINE
  5
3AA
330
1F
100
AcDbEntity
  8
0
100
AcDbLine
 10
111.0504910330623
 20
138.8956489694075
 30
0.0
 11
112.9617324171907
 21
140.8068903535358
 31
0.0
  0
LINE
  5
3AB
330
1F
100
AcDbEntity
  8
0
100
AcDbLine
 10
113.0420238398024
 20
140.8871817761476
 30
0.0
 11
114.0699592908423
 21
141.9151172271874
 31
0.0
  0
LINE
  5
3AC
330
1F
100
AcDbEntity
  8
0
100
AcDbLine
 10
114.8729738423797
 20
142.7181317787249
 30
0.0
 11
115.9622013117799
 21
143.807359248125
 31
0.0
  0
LINE
  5
3AD
330
1F
100
AcDbEntity
  8
0
100
AcDbLine
 10
109.9616513911405
 20
137.8442859868885
 30
0.0
 11
110.1330950079116
 21
138.0157296036596
 31
0.0
  0
LINE
  5
3AE
330
1F
100
AcDbEntity
  8
0
100
AcDbLine
 10
111.0504910330623
 20
138.9331256288103
 30
0.0
 11
112.9617324171907
 21
140.8443670129387
 31
0.0
  0
LINE
  5
3AF
330
1F
100
AcDbEntity
  8
0
100
AcDbLine
 10
113.0277799130696
 20
140.9104145088177
 30
0.0
 11
114.055637883392
 21
141.93827247914
 31
0.0
  0
LINE
  5
3B0
330
1F
100
AcDbEntity
  8
0
100
AcDbLine
 10
114.8729738423797
 20
142.7556084381277
 30
0.0
 11
115.924724652377
 21
143.807359248125
 31
0.0
  0
LINE
  5
3B1
330
1F
100
AcDbEntity
  8
0
100
AcDbLine
 10
109.9241747317376
 20
137.8442859868885
 30
0.0
 11
110.1330950079116
 21
138.0532062630625
 31
0.0
  0
LINE
  5
3B2
330
1F
100
AcDbEntity
  8
0
100
AcDbLine
 10
111.0504910330623
 20
138.9706022882132
 30
0.0
 11
112.9617324171907
 21
140.8818436723416
 31
0.0
  0
LINE
  5
3B3
330
1F
100
AcDbEntity
  8
0
100
AcDbLine
 10
113.0135359863368
 20
140.9336472414877
 30
0.0
 11
114.0413164759417
 21
141.9614277310926
 31
0.0
  0
LINE
  5
3B4
330
1F
100
AcDbEntity
  8
0
100
AcDbLine
 10
114.8729738423797
 20
142.7930850975306
 30
0.0
 11
115.8872479929741
 21
143.807359248125
 31
0.0
  0
LINE
  5
3B5
330
1F
100
AcDbEntity
  8
0
100
AcDbLine
 10
109.8866980723347
 20
137.8442859868885
 30
0.0
 11
110.1330950079116
 21
138.0906829224654
 31
0.0
  0
LINE
  5
3B6
330
1F
100
AcDbEntity
  8
0
100
AcDbLine
 10
111.0504910330623
 20
139.0080789476161
 30
0.0
 11
112.9617324171907
 21
140.9193203317445
 31
0.0
  0
LINE
  5
3B7
330
1F
100
AcDbEntity
  8
0
100
AcDbLine
 10
112.999292059604
 20
140.9568799741578
 30
0.0
 11
114.0269950684914
 21
141.9845829830452
 31
0.0
  0
LINE
  5
3B8
330
1F
100
AcDbEntity
  8
0
100
AcDbLine
 10
114.8729738423797
 20
142.8305617569335
 30
0.0
 11
115.8497713335712
 21
143.807359248125
 31
0.0
  0
LINE
  5
3B9
330
1F
100
AcDbEntity
  8
0
100
AcDbLine
 10
109.8492214129318
 20
137.8442859868885
 30
0.0
 11
110.1330950079116
 21
138.1281595818683
 31
0.0
  0
LINE
  5
3BA
330
1F
100
AcDbEntity
  8
0
100
AcDbLine
 10
111.0504910330623
 20
139.045555607019
 30
0.0
 11
112.9617324171907
 21
140.9567969911474
 31
0.0
  0
LINE
  5
3BB
330
1F
100
AcDbEntity
  8
0
100
AcDbLine
 10
112.9850481328711
 20
140.9801127068278
 30
0.0
 11
114.0126736610411
 21
142.0077382349978
 31
0.0
  0
LINE
  5
3BC
330
1F
100
AcDbEntity
  8
0
100
AcDbLine
 10
114.8729738423797
 20
142.8680384163364
 30
0.0
 11
115.8122946741683
 21
143.807359248125
 31
0.0
  0
LINE
  5
3BD
330
1F
100
AcDbEntity
  8
0
100
AcDbLine
 10
109.8117447535289
 20
137.8442859868885
 30
0.0
 11
110.1330950079116
 21
138.1656362412712
 31
0.0
  0
LINE
  5
3BE
330
1F
100
AcDbEntity
  8
0
100
AcDbLine
 10
111.0504910330623
 20
139.0830322664219
 30
0.0
 11
112.9617324171907
 21
140.9942736505503
 31
0.0
  0
LINE
  5
3BF
330
1F
100
AcDbEntity
  8
0
100
AcDbLine
 10
112.9708042061383
 20
141.0033454394979
 30
0.0
 11
113.9983522535908
 21
142.0308934869504
 31
0.0
  0
LINE
  5
3C0
330
1F
100
AcDbEntity
  8
0
100
AcDbLine
 10
114.8729738423797
 20
142.9055150757393
 30
0.0
 11
115.7748180147654
 21
143.807359248125
 31
0.0
  0
LINE
  5
3C1
330
1F
100
AcDbEntity
  8
0
100
AcDbLine
 10
109.774268094126
 20
137.8442859868885
 30
0.0
 11
110.1330950079116
 21
138.2031129006741
 31
0.0
  0
LINE
  5
3C2
330
1F
100
AcDbEntity
  8
0
100
AcDbLine
 10
111.0504910330623
 20
139.1205089258248
 30
0.0
 11
113.9840308461405
 21
142.054048738903
 31
0.0
  0
LINE
  5
3C3
330
1F
100
AcDbEntity
  8
0
100
AcDbLine
 10
114.8729738423797
 20
142.9429917351422
 30
0.0
 11
115.7373413553625
 21
143.807359248125
 31
0.0
  0
LINE
  5
3C4
330
1F
100
AcDbEntity
  8
0
100
AcDbLine
 10
109.7367914347231
 20
137.8442859868885
 30
0.0
 11
110.1330950079116
 21
138.240589560077
 31
0.0
  0
LINE
  5
3C5
330
1F
100
AcDbEntity
  8
0
100
AcDbLine
 10
111.0504910330623
 20
139.1579855852277
 30
0.0
 11
113.9697094386902
 21
142.0772039908555
 31
0.0
  0
LINE
  5
3C6
330
1F
100
AcDbEntity
  8
0
100
AcDbLine
 10
114.8729738423797
 20
142.9804683945451
 30
0.0
 11
115.6998646959596
 21
143.807359248125
 31
0.0
  0
LINE
  5
3C7
330
1F
100
AcDbEntity
  8
0
100
AcDbLine
 10
109.6993147753203
 20
137.8442859868885
 30
0.0
 11
110.1330950079116
 21
138.2780662194799
 31
0.0
  0
LINE
  5
3C8
330
1F
100
AcDbEntity
  8
0
100
AcDbLine
 10
111.0504910330623
 20
139.1954622446306
 30
0.0
 11
113.9553880312399
 21
142.1003592428081
 31
0.0
  0
LINE
  5
3C9
330
1F
100
AcDbEntity
  8
0
100
AcDbLine
 10
114.8729738423797
 20
143.017945053948
 30
0.0
 11
115.6623880365568
 21
143.807359248125
 31
0.0
  0
LINE
  5
3CA
330
1F
100
AcDbEntity
  8
0
100
AcDbLine
 10
109.6618381159174
 20
137.8442859868885
 30
0.0
 11
110.1330950079116
 21
138.3155428788827
 31
0.0
  0
LINE
  5
3CB
330
1F
100
AcDbEntity
  8
0
100
AcDbLine
 10
111.0504910330623
 20
139.2329389040334
 30
0.0
 11
113.9410666237896
 21
142.1235144947607
 31
0.0
  0
LINE
  5
3CC
330
1F
100
AcDbEntity
  8
0
100
AcDbLine
 10
114.8729738423797
 20
143.0554217133508
 30
0.0
 11
115.6249113771539
 21
143.807359248125
 31
0.0
  0
LINE
  5
3CD
330
1F
100
AcDbEntity
  8
0
100
AcDbLine
 10
109.6243614565145
 20
137.8442859868885
 30
0.0
 11
110.1330950079116
 21
138.3530195382856
 31
0.0
  0
LINE
  5
3CE
330
1F
100
AcDbEntity
  8
0
100
AcDbLine
 10
111.0504910330623
 20
139.2704155634363
 30
0.0
 11
113.9267452163393
 21
142.1466697467133
 31
0.0
  0
LINE
  5
3CF
330
1F
100
AcDbEntity
  8
0
100
AcDbLine
 10
114.8729738423797
 20
143.0928983727537
 30
0.0
 11
115.587434717751
 21
143.807359248125
 31
0.0
  0
LINE
  5
3D0
330
1F
100
AcDbEntity
  8
0
100
AcDbLine
 10
109.5868847971116
 20
137.8442859868885
 30
0.0
 11
110.1330950079116
 21
138.3904961976885
 31
0.0
  0
LINE
  5
3D1
330
1F
100
AcDbEntity
  8
0
100
AcDbLine
 10
111.0504910330623
 20
139.3078922228392
 30
0.0
 11
113.912423808889
 21
142.1698249986659
 31
0.0
  0
LINE
  5
3D2
330
1F
100
AcDbEntity
  8
0
100
AcDbLine
 10
114.8729738423797
 20
143.1303750321566
 30
0.0
 11
115.5499580583481
 21
143.807359248125
 31
0.0
  0
LINE
  5
3D3
330
1F
100
AcDbEntity
  8
0
100
AcDbLine
 10
109.5494081377087
 20
137.8442859868885
 30
0.0
 11
110.1330950079116
 21
138.4279728570914
 31
0.0
  0
LINE
  5
3D4
330
1F
100
AcDbEntity
  8
0
100
AcDbLine
 10
111.0504910330623
 20
139.3453688822421
 30
0.0
 11
113.8981024014387
 21
142.1929802506185
 31
0.0
  0
LINE
  5
3D5
330
1F
100
AcDbEntity
  8
0
100
AcDbLine
 10
114.8729738423797
 20
143.1678516915595
 30
0.0
 11
115.5124813989452
 21
143.807359248125
 31
0.0
  0
LINE
  5
3D6
330
1F
100
AcDbEntity
  8
0
100
AcDbLine
 10
109.5119314783058
 20
137.8442859868885
 30
0.0
 11
110.1330950079116
 21
138.4654495164943
 31
0.0
  0
LINE
  5
3D7
330
1F
100
AcDbEntity
  8
0
100
AcDbLine
 10
111.0504910330623
 20
139.382845541645
 30
0.0
 11
113.8837809939884
 21
142.2161355025711
 31
0.0
  0
LINE
  5
3D8
330
1F
100
AcDbEntity
  8
0
100
AcDbLine
 10
114.8729738423797
 20
143.2053283509624
 30
0.0
 11
115.4750047395423
 21
143.807359248125
 31
0.0
  0
LINE
  5
3D9
330
1F
100
AcDbEntity
  8
0
100
AcDbLine
 10
109.4744548189029
 20
137.8442859868885
 30
0.0
 11
110.1330950079116
 21
138.5029261758972
 31
0.0
  0
LINE
  5
3DA
330
1F
100
AcDbEntity
  8
0
100
AcDbLine
 10
111.0504910330623
 20
139.4203222010479
 30
0.0
 11
113.8694595865381
 21
142.2392907545237
 31
0.0
  0
LINE
  5
3DB
330
1F
100
AcDbEntity
  8
0
100
AcDbLine
 10
114.8729738423797
 20
143.2428050103653
 30
0.0
 11
115.4375280801394
 21
143.807359248125
 31
0.0
  0
LINE
  5
3DC
330
1F
100
AcDbEntity
  8
0
100
AcDbLine
 10
109.4369781595
 20
137.8442859868885
 30
0.0
 11
110.1330950079116
 21
138.5404028353001
 31
0.0
  0
LINE
  5
3DD
330
1F
100
AcDbEntity
  8
0
100
AcDbLine
 10
111.0504910330623
 20
139.4577988604508
 30
0.0
 11
113.8551381790878
 21
142.2624460064763
 31
0.0
  0
LINE
  5
3DE
330
1F
100
AcDbEntity
  8
0
100
AcDbLine
 10
114.8729738423797
 20
143.2802816697682
 30
0.0
 11
115.4000514207366
 21
143.807359248125
 31
0.0
  0
LINE
  5
3DF
330
1F
100
AcDbEntity
  8
0
100
AcDbLine
 10
109.3995015000972
 20
137.8442859868885
 30
0.0
 11
110.1330950079116
 21
138.577879494703
 31
0.0
  0
LINE
  5
3E0
330
1F
100
AcDbEntity
  8
0
100
AcDbLine
 10
111.0504910330623
 20
139.4952755198537
 30
0.0
 11
113.8408167716375
 21
142.2856012584288
 31
0.0
  0
LINE
  5
3E1
330
1F
100
AcDbEntity
  8
0
100
AcDbLine
 10
114.8729738423797
 20
143.317758329171
 30
0.0
 11
115.3625747613337
 21
143.807359248125
 31
0.0
  0
LINE
  5
3E2
330
1F
100
AcDbEntity
  8
0
100
AcDbLine
 10
109.3620248406943
 20
137.8442859868885
 30
0.0
 11
110.1330950079116
 21
138.6153561541058
 31
0.0
  0
LINE
  5
3E3
330
1F
100
AcDbEntity
  8
0
100
AcDbLine
 10
111.0504910330623
 20
139.5327521792566
 30
0.0
 11
113.8264953641872
 21
142.3087565103814
 31
0.0
  0
LINE
  5
3E4
330
1F
100
AcDbEntity
  8
0
100
AcDbLine
 10
114.8729738423797
 20
143.355234988574
 30
0.0
 11
115.3250981019308
 21
143.807359248125
 31
0.0
  0
LINE
  5
3E5
330
1F
100
AcDbEntity
  8
0
100
AcDbLine
 10
109.3245481812914
 20
137.8442859868885
 30
0.0
 11
110.1330950079116
 21
138.6528328135088
 31
0.0
  0
LINE
  5
3E6
330
1F
100
AcDbEntity
  8
0
100
AcDbLine
 10
111.0504910330623
 20
139.5702288386594
 30
0.0
 11
113.8121739567369
 21
142.331911762334
 31
0.0
  0
LINE
  5
3E7
330
1F
100
AcDbEntity
  8
0
100
AcDbLine
 10
114.8729738423797
 20
143.3927116479768
 30
0.0
 11
115.2876214425279
 21
143.807359248125
 31
0.0
  0
LINE
  5
3E8
330
1F
100
AcDbEntity
  8
0
100
AcDbLine
 10
109.2870715218885
 20
137.8442859868885
 30
0.0
 11
110.1330950079116
 21
138.6903094729116
 31
0.0
  0
LINE
  5
3E9
330
1F
100
AcDbEntity
  8
0
100
AcDbLine
 10
111.0504910330623
 20
139.6077054980623
 30
0.0
 11
113.7978525492866
 21
142.3550670142866
 31
0.0
  0
LINE
  5
3EA
330
1F
100
AcDbEntity
  8
0
100
AcDbLine
 10
114.8729738423797
 20
143.4301883073797
 30
0.0
 11
115.250144783125
 21
143.807359248125
 31
0.0
  0
LINE
  5
3EB
330
1F
100
AcDbEntity
  8
0
100
AcDbLine
 10
109.2495948624856
 20
137.8442859868885
 30
0.0
 11
110.1330950079116
 21
138.7277861323145
 31
0.0
  0
LINE
  5
3EC
330
1F
100
AcDbEntity
  8
0
100
AcDbLine
 10
111.0504910330623
 20
139.6451821574652
 30
0.0
 11
113.7835311418363
 21
142.3782222662392
 31
0.0
  0
LINE
  5
3ED
330
1F
100
AcDbEntity
  8
0
100
AcDbLine
 10
114.8729738423797
 20
143.4676649667826
 30
0.0
 11
115.2126681237221
 21
143.807359248125
 31
0.0
  0
LINE
  5
3EE
330
1F
100
AcDbEntity
  8
0
100
AcDbLine
 10
109.2121182030827
 20
137.8442859868885
 30
0.0
 11
110.1330950079116
 21
138.7652627917174
 31
0.0
  0
LINE
  5
3EF
330
1F
100
AcDbEntity
  8
0
100
AcDbLine
 10
111.0504910330623
 20
139.6826588168681
 30
0.0
 11
113.769209734386
 21
142.4013775181918
 31
0.0
  0
LINE
  5
3F0
330
1F
100
AcDbEntity
  8
0
100
AcDbLine
 10
114.8729738423797
 20
143.5051416261855
 30
0.0
 11
115.1751914643192
 21
143.807359248125
 31
0.0
  0
LINE
  5
3F1
330
1F
100
AcDbEntity
  8
0
100
AcDbLine
 10
109.1746415436798
 20
137.8442859868885
 30
0.0
 11
110.1330950079116
 21
138.8027394511203
 31
0.0
  0
LINE
  5
3F2
330
1F
100
AcDbEntity
  8
0
100
AcDbLine
 10
111.0504910330623
 20
139.720135476271
 30
0.0
 11
113.7548883269357
 21
142.4245327701444
 31
0.0
  0
LINE
  5
3F3
330
1F
100
AcDbEntity
  8
0
100
AcDbLine
 10
114.8729738423797
 20
143.5426182855884
 30
0.0
 11
115.1377148049163
 21
143.807359248125
 31
0.0
  0
LINE
  5
3F4
330
1F
100
AcDbEntity
  8
0
100
AcDbLine
 10
109.137164884277
 20
137.8442859868885
 30
0.0
 11
110.1330950079116
 21
138.8402161105232
 31
0.0
  0
LINE
  5
3F5
330
1F
100
AcDbEntity
  8
0
100
AcDbLine
 10
111.0504910330623
 20
139.7576121356739
 30
0.0
 11
113.7405669194854
 21
142.447688022097
 31
0.0
  0
LINE
  5
3F6
330
1F
100
AcDbEntity
  8
0
100
AcDbLine
 10
114.8729738423797
 20
143.5800949449912
 30
0.0
 11
115.1002381455134
 21
143.807359248125
 31
0.0
  0
LINE
  5
3F7
330
1F
100
AcDbEntity
  8
0
100
AcDbLine
 10
109.099688224874
 20
137.8442859868885
 30
0.0
 11
110.1330950079116
 21
138.8776927699261
 31
0.0
  0
LINE
  5
3F8
330
1F
100
AcDbEntity
  8
0
100
AcDbLine
 10
111.0504910330623
 20
139.7950887950767
 30
0.0
 11
113.7262455120351
 21
142.4708432740496
 31
0.0
  0
LINE
  5
3F9
330
1F
100
AcDbEntity
  8
0
100
AcDbLine
 10
114.8729738423797
 20
143.6175716043942
 30
0.0
 11
115.0627614861106
 21
143.807359248125
 31
0.0
  0
LINE
  5
3FA
330
1F
100
AcDbEntity
  8
0
100
AcDbLine
 10
109.0622115654712
 20
137.8442859868885
 30
0.0
 11
110.1330950079116
 21
138.915169429329
 31
0.0
  0
LINE
  5
3FB
330
1F
100
AcDbEntity
  8
0
100
AcDbLine
 10
111.0504910330623
 20
139.8325654544796
 30
0.0
 11
113.7119241045848
 21
142.4939985260022
 31
0.0
  0
LINE
  5
3FC
330
1F
100
AcDbEntity
  8
0
100
AcDbLine
 10
114.8729738423797
 20
143.655048263797
 30
0.0
 11
115.0252848267077
 21
143.807359248125
 31
0.0
  0
LINE
  5
3FD
330
1F
100
AcDbEntity
  8
0
100
AcDbLine
 10
109.0247349060683
 20
137.8442859868885
 30
0.0
 11
110.1330950079116
 21
138.9526460887318
 31
0.0
  0
LINE
  5
3FE
330
1F
100
AcDbEntity
  8
0
100
AcDbLine
 10
111.0504910330623
 20
139.8700421138825
 30
0.0
 11
113.6976026971345
 21
142.5171537779547
 31
0.0
  0
LINE
  5
3FF
330
1F
100
AcDbEntity
  8
0
100
AcDbLine
 10
114.8729738423797
 20
143.6925249231999
 30
0.0
 11
114.9878081673048
 21
143.807359248125
 31
0.0
  0
LINE
  5
400
330
1F
100
AcDbEntity
  8
0
100
AcDbLine
 10
108.9872582466654
 20
137.8442859868885
 30
0.0
 11
110.1330950079116
 21
138.9901227481348
 31
0.0
  0
LINE
  5
401
330
1F
100
AcDbEntity
  8
0
100
AcDbLine
 10
111.0504910330623
 20
139.9075187732854
 30
0.0
 11
113.6832812896842
 21
142.5403090299073
 31
0.0
  0
LINE
  5
402
330
1F
100
AcDbEntity
  8
0
100
AcDbLine
 10
114.8729738423797
 20
143.7300015826028
 30
0.0
 11
114.9503315079019
 21
143.807359248125
 31
0.0
  0
LINE
  5
403
330
1F
100
AcDbEntity
  8
0
100
AcDbLine
 10
108.9497815872625
 20
137.8442859868885
 30
0.0
 11
110.1330950079116
 21
139.0275994075376
 31
0.0
  0
LINE
  5
404
330
1F
100
AcDbEntity
  8
0
100
AcDbLine
 10
111.0504910330623
 20
139.9449954326883
 30
0.0
 11
113.6689598822339
 21
142.5634642818599
 31
0.0
  0
LINE
  5
405
330
1F
100
AcDbEntity
  8
0
100
AcDbLine
 10
114.8729738423797
 20
143.7674782420057
 30
0.0
 11
114.912854848499
 21
143.807359248125
 31
0.0
  0
LINE
  5
406
330
1F
100
AcDbEntity
  8
0
100
AcDbLine
 10
108.9123049278596
 20
137.8442859868885
 30
0.0
 11
110.1330950079116
 21
139.0650760669405
 31
0.0
  0
LINE
  5
407
330
1F
100
AcDbEntity
  8
0
100
AcDbLine
 10
111.0504910330623
 20
139.9824720920912
 30
0.0
 11
113.6546384747836
 21
142.5866195338125
 31
0.0
  0
LINE
  5
408
330
1F
100
AcDbEntity
  8
0
100
AcDbLine
 10
114.8729738423797
 20
143.8049549014086
 30
0.0
 11
114.8753781890961
 21
143.807359248125
 31
0.0
  0
LINE
  5
409
330
1F
100
AcDbEntity
  8
0
100
AcDbLine
 10
108.8748282684567
 20
137.8442859868885
 30
0.0
 11
110.1330950079116
 21
139.1025527263434
 31
0.0
  0
LINE
  5
40A
330
1F
100
AcDbEntity
  8
0
100
AcDbLine
 10
111.0504910330623
 20
140.0199487514941
 30
0.0
 11
113.6403170673333
 21
142.6097747857651
 31
0.0
  0
LINE
  5
40B
330
1F
100
AcDbEntity
  8
0
100
AcDbLine
 10
108.8373516090538
 20
137.8442859868885
 30
0.0
 11
110.1330950079116
 21
139.1400293857463
 31
0.0
  0
LINE
  5
40C
330
1F
100
AcDbEntity
  8
0
100
AcDbLine
 10
111.0504910330623
 20
140.057425410897
 30
0.0
 11
113.625995659883
 21
142.6329300377177
 31
0.0
  0
LINE
  5
40D
330
1F
100
AcDbEntity
  8
0
100
AcDbLine
 10
108.799874949651
 20
137.8442859868885
 30
0.0
 11
110.1330950079116
 21
139.1775060451492
 31
0.0
  0
LINE
  5
40E
330
1F
100
AcDbEntity
  8
0
100
AcDbLine
 10
111.0504910330623
 20
140.0949020702999
 30
0.0
 11
113.6116742524327
 21
142.6560852896703
 31
0.0
  0
LINE
  5
40F
330
1F
100
AcDbEntity
  8
0
100
AcDbLine
 10
108.7623982902481
 20
137.8442859868885
 30
0.0
 11
110.1330950079116
 21
139.214982704552
 31
0.0
  0
LINE
  5
410
330
1F
100
AcDbEntity
  8
0
100
AcDbLine
 10
111.0504910330623
 20
140.1323787297027
 30
0.0
 11
113.5973528449824
 21
142.6792405416229
 31
0.0
  0
LINE
  5
411
330
1F
100
AcDbEntity
  8
0
100
AcDbLine
 10
108.7249216308452
 20
137.8442859868885
 30
0.0
 11
110.1330950079116
 21
139.2524593639549
 31
0.0
  0
LINE
  5
412
330
1F
100
AcDbEntity
  8
0
100
AcDbLine
 10
111.0504910330623
 20
140.1698553891056
 30
0.0
 11
113.5830314375321
 21
142.7023957935755
 31
0.0
  0
LINE
  5
413
330
1F
100
AcDbEntity
  8
0
100
AcDbLine
 10
108.6874449714423
 20
137.8442859868885
 30
0.0
 11
110.1330950079116
 21
139.2899360233578
 31
0.0
  0
LINE
  5
414
330
1F
100
AcDbEntity
  8
0
100
AcDbLine
 10
111.0504910330623
 20
140.2073320485085
 30
0.0
 11
113.5687100300818
 21
142.7255510455281
 31
0.0
  0
LINE
  5
415
330
1F
100
AcDbEntity
  8
0
100
AcDbLine
 10
108.6499683120394
 20
137.8442859868885
 30
0.0
 11
110.1330950079116
 21
139.3274126827607
 31
0.0
  0
LINE
  5
416
330
1F
100
AcDbEntity
  8
0
100
AcDbLine
 10
111.0504910330623
 20
140.2448087079114
 30
0.0
 11
113.5543886226315
 21
142.7487062974807
 31
0.0
  0
LINE
  5
417
330
1F
100
AcDbEntity
  8
0
100
AcDbLine
 10
108.6124916526365
 20
137.8442859868885
 30
0.0
 11
110.1330950079116
 21
139.3648893421636
 31
0.0
  0
LINE
  5
418
330
1F
100
AcDbEntity
  8
0
100
AcDbLine
 10
111.0504910330623
 20
140.2822853673143
 30
0.0
 11
113.5400672151812
 21
142.7718615494332
 31
0.0
  0
LINE
  5
419
330
1F
100
AcDbEntity
  8
0
100
AcDbLine
 10
108.5750149932336
 20
137.8442859868885
 30
0.0
 11
110.1040086417063
 21
139.3732796353612
 31
0.0
  0
LINE
  5
41A
330
1F
100
AcDbEntity
  8
0
100
AcDbLine
 10
111.0504910330623
 20
140.3197620267172
 30
0.0
 11
113.5257458077309
 21
142.7950168013858
 31
0.0
  0
LINE
  5
41B
330
1F
100
AcDbEntity
  8
0
100
AcDbLine
 10
108.5375383338308
 20
137.8442859868885
 30
0.0
 11
110.0665319823034
 21
139.3732796353612
 31
0.0
  0
LINE
  5
41C
330
1F
100
AcDbEntity
  8
0
100
AcDbLine
 10
111.0504910330623
 20
140.3572386861201
 30
0.0
 11
113.5114244002806
 21
142.8181720533384
 31
0.0
  0
LINE
  5
41D
330
1F
100
AcDbEntity
  8
0
100
AcDbLine
 10
108.5000616744278
 20
137.8442859868885
 30
0.0
 11
110.0290553229005
 21
139.3732796353612
 31
0.0
  0
LINE
  5
41E
330
1F
100
AcDbEntity
  8
0
100
AcDbLine
 10
111.0504910330623
 20
140.3947153455229
 30
0.0
 11
113.4971029928303
 21
142.841327305291
 31
0.0
  0
LINE
  5
41F
330
1F
100
AcDbEntity
  8
0
100
AcDbLine
 10
108.462585015025
 20
137.8442859868885
 30
0.0
 11
109.9915786634976
 21
139.3732796353612
 31
0.0
  0
LINE
  5
420
330
1F
100
AcDbEntity
  8
0
100
AcDbLine
 10
111.0504910330623
 20
140.4321920049258
 30
0.0
 11
113.4827815853801
 21
142.8644825572436
 31
0.0
  0
LINE
  5
421
330
1F
100
AcDbEntity
  8
0
100
AcDbLine
 10
108.4251083556221
 20
137.8442859868885
 30
0.0
 11
109.9541020040948
 21
139.3732796353612
 31
0.0
  0
LINE
  5
422
330
1F
100
AcDbEntity
  8
0
100
AcDbLine
 10
111.0504910330623
 20
140.4696686643287
 30
0.0
 11
113.4684601779298
 21
142.8876378091962
 31
0.0
  0
LINE
  5
423
330
1F
100
AcDbEntity
  8
0
100
AcDbLine
 10
108.3876316962192
 20
137.8442859868885
 30
0.0
 11
109.9166253446919
 21
139.3732796353612
 31
0.0
  0
LINE
  5
424
330
1F
100
AcDbEntity
  8
0
100
AcDbLine
 10
111.0504910330623
 20
140.5071453237316
 30
0.0
 11
113.4541387704795
 21
142.9107930611488
 31
0.0
  0
LINE
  5
425
330
1F
100
AcDbEntity
  8
0
100
AcDbLine
 10
108.3501550368163
 20
137.8442859868885
 30
0.0
 11
109.879148685289
 21
139.3732796353612
 31
0.0
  0
LINE
  5
426
330
1F
100
AcDbEntity
  8
0
100
AcDbLine
 10
111.0504910330623
 20
140.5446219831345
 30
0.0
 11
113.4398173630292
 21
142.9339483131014
 31
0.0
  0
LINE
  5
427
330
1F
100
AcDbEntity
  8
0
100
AcDbLine
 10
108.3126783774134
 20
137.8442859868885
 30
0.0
 11
109.8416720258861
 21
139.3732796353612
 31
0.0
  0
LINE
  5
428
330
1F
100
AcDbEntity
  8
0
100
AcDbLine
 10
111.0504910330623
 20
140.5820986425374
 30
0.0
 11
113.4254959555789
 21
142.957103565054
 31
0.0
  0
LINE
  5
429
330
1F
100
AcDbEntity
  8
0
100
AcDbLine
 10
108.2752017180105
 20
137.8442859868885
 30
0.0
 11
109.8041953664832
 21
139.3732796353612
 31
0.0
  0
LINE
  5
42A
330
1F
100
AcDbEntity
  8
0
100
AcDbLine
 10
111.0504910330623
 20
140.6195753019403
 30
0.0
 11
113.4111745481286
 21
142.9802588170066
 31
0.0
  0
LINE
  5
42B
330
1F
100
AcDbEntity
  8
0
100
AcDbLine
 10
108.2377250586076
 20
137.8442859868885
 30
0.0
 11
109.7667187070803
 21
139.3732796353612
 31
0.0
  0
LINE
  5
42C
330
1F
100
AcDbEntity
  8
0
100
AcDbLine
 10
111.0504910330623
 20
140.6570519613432
 30
0.0
 11
113.3968531406783
 21
143.0034140689592
 31
0.0
  0
LINE
  5
42D
330
1F
100
AcDbEntity
  8
0
100
AcDbLine
 10
108.2002483992048
 20
137.8442859868885
 30
0.0
 11
109.7292420476774
 21
139.3732796353612
 31
0.0
  0
LINE
  5
42E
330
1F
100
AcDbEntity
  8
0
100
AcDbLine
 10
111.0504910330623
 20
140.694528620746
 30
0.0
 11
113.382531733228
 21
143.0265693209117
 31
0.0
  0
LINE
  5
42F
330
1F
100
AcDbEntity
  8
0
100
AcDbLine
 10
108.1627717398019
 20
137.8442859868885
 30
0.0
 11
109.6917653882745
 21
139.3732796353612
 31
0.0
  0
LINE
  5
430
330
1F
100
AcDbEntity
  8
0
100
AcDbLine
 10
111.0504910330623
 20
140.7320052801489
 30
0.0
 11
113.3682103257777
 21
143.0497245728643
 31
0.0
  0
LINE
  5
431
330
1F
100
AcDbEntity
  8
0
100
AcDbLine
 10
108.125295080399
 20
137.8442859868885
 30
0.0
 11
109.6542887288717
 21
139.3732796353612
 31
0.0
  0
LINE
  5
432
330
1F
100
AcDbEntity
  8
0
100
AcDbLine
 10
111.0504910330623
 20
140.7694819395518
 30
0.0
 11
113.3538889183274
 21
143.0728798248169
 31
0.0
  0
LINE
  5
433
330
1F
100
AcDbEntity
  8
0
100
AcDbLine
 10
108.0878184209961
 20
137.8442859868885
 30
0.0
 11
109.6168120694688
 21
139.3732796353612
 31
0.0
  0
LINE
  5
434
330
1F
100
AcDbEntity
  8
0
100
AcDbLine
 10
111.0504910330623
 20
140.8069585989547
 30
0.0
 11
113.3395675108771
 21
143.0960350767695
 31
0.0
  0
LINE
  5
435
330
1F
100
AcDbEntity
  8
0
100
AcDbLine
 10
108.0503417615932
 20
137.8442859868885
 30
0.0
 11
109.5793354100659
 21
139.3732796353612
 31
0.0
  0
LINE
  5
436
330
1F
100
AcDbEntity
  8
0
100
AcDbLine
 10
111.0504910330623
 20
140.8444352583576
 30
0.0
 11
113.3252461034268
 21
143.1191903287221
 31
0.0
  0
LINE
  5
437
330
1F
100
AcDbEntity
  8
0
100
AcDbLine
 10
108.0128651021903
 20
137.8442859868885
 30
0.0
 11
109.541858750663
 21
139.3732796353612
 31
0.0
  0
LINE
  5
438
330
1F
100
AcDbEntity
  8
0
100
AcDbLine
 10
111.0504910330623
 20
140.8819119177605
 30
0.0
 11
113.3109246959765
 21
143.1423455806747
 31
0.0
  0
LINE
  5
439
330
1F
100
AcDbEntity
  8
0
100
AcDbLine
 10
107.9753884427874
 20
137.8442859868885
 30
0.0
 11
109.5043820912601
 21
139.3732796353612
 31
0.0
  0
LINE
  5
43A
330
1F
100
AcDbEntity
  8
0
100
AcDbLine
 10
111.0504910330623
 20
140.9193885771634
 30
0.0
 11
113.2966032885262
 21
143.1655008326273
 31
0.0
  0
LINE
  5
43B
330
1F
100
AcDbEntity
  8
0
100
AcDbLine
 10
107.9379117833845
 20
137.8442859868885
 30
0.0
 11
109.4669054318572
 21
139.3732796353612
 31
0.0
  0
LINE
  5
43C
330
1F
100
AcDbEntity
  8
0
100
AcDbLine
 10
111.0504910330623
 20
140.9568652365663
 30
0.0
 11
113.2822818810759
 21
143.1886560845799
 31
0.0
  0
LINE
  5
43D
330
1F
100
AcDbEntity
  8
0
100
AcDbLine
 10
107.9004351239816
 20
137.8442859868885
 30
0.0
 11
109.4294287724543
 21
139.3732796353612
 31
0.0
  0
LINE
  5
43E
330
1F
100
AcDbEntity
  8
0
100
AcDbLine
 10
111.0504910330623
 20
140.9943418959692
 30
0.0
 11
113.2679604736256
 21
143.2118113365324
 31
0.0
  0
LINE
  5
43F
330
1F
100
AcDbEntity
  8
0
100
AcDbLine
 10
107.8629584645788
 20
137.8442859868885
 30
0.0
 11
109.3919521130515
 21
139.3732796353612
 31
0.0
  0
LINE
  5
440
330
1F
100
AcDbEntity
  8
0
100
AcDbLine
 10
111.0504910330623
 20
141.031818555372
 30
0.0
 11
113.2536390661753
 21
143.234966588485
 31
0.0
  0
LINE
  5
441
330
1F
100
AcDbEntity
  8
0
100
AcDbLine
 10
107.8254818051759
 20
137.8442859868885
 30
0.0
 11
109.3544754536486
 21
139.3732796353612
 31
0.0
  0
LINE
  5
442
330
1F
100
AcDbEntity
  8
0
100
AcDbLine
 10
111.0504910330623
 20
141.0692952147749
 30
0.0
 11
113.239317658725
 21
143.2581218404376
 31
0.0
  0
LINE
  5
443
330
1F
100
AcDbEntity
  8
0
100
AcDbLine
 10
107.788005145773
 20
137.8442859868885
 30
0.0
 11
109.3169987942457
 21
139.3732796353612
 31
0.0
  0
LINE
  5
444
330
1F
100
AcDbEntity
  8
0
100
AcDbLine
 10
111.0504910330623
 20
141.1067718741778
 30
0.0
 11
113.2249962512747
 21
143.2812770923902
 31
0.0
  0
LINE
  5
445
330
1F
100
AcDbEntity
  8
0
100
AcDbLine
 10
107.7505284863701
 20
137.8442859868885
 30
0.0
 11
109.2795221348428
 21
139.3732796353612
 31
0.0
  0
LINE
  5
446
330
1F
100
AcDbEntity
  8
0
100
AcDbLine
 10
111.0504910330623
 20
141.1442485335807
 30
0.0
 11
113.2106748438244
 21
143.3044323443428
 31
0.0
  0
LINE
  5
447
330
1F
100
AcDbEntity
  8
0
100
AcDbLine
 10
107.7130518269672
 20
137.8442859868885
 30
0.0
 11
109.2420454754399
 21
139.3732796353612
 31
0.0
  0
LINE
  5
448
330
1F
100
AcDbEntity
  8
0
100
AcDbLine
 10
111.0504910330623
 20
141.1817251929836
 30
0.0
 11
113.1963534363741
 21
143.3275875962954
 31
0.0
  0
LINE
  5
449
330
1F
100
AcDbEntity
  8
0
100
AcDbLine
 10
107.6755751675643
 20
137.8442859868885
 30
0.0
 11
109.204568816037
 21
139.3732796353612
 31
0.0
  0
LINE
  5
44A
330
1F
100
AcDbEntity
  8
0
100
AcDbLine
 10
111.0504910330623
 20
141.2192018523865
 30
0.0
 11
113.1820320289238
 21
143.350742848248
 31
0.0
  0
LINE
  5
44B
330
1F
100
AcDbEntity
  8
0
100
AcDbLine
 10
107.6380985081614
 20
137.8442859868885
 30
0.0
 11
109.1670921566341
 21
139.3732796353612
 31
0.0
  0
LINE
  5
44C
330
1F
100
AcDbEntity
  8
0
100
AcDbLine
 10
111.0504910330623
 20
141.2566785117894
 30
0.0
 11
113.1677106214735
 21
143.3738981002006
 31
0.0
  0
LINE
  5
44D
330
1F
100
AcDbEntity
  8
0
100
AcDbLine
 10
107.6006218487585
 20
137.8442859868885
 30
0.0
 11
109.1296154972312
 21
139.3732796353612
 31
0.0
  0
LINE
  5
44E
330
1F
100
AcDbEntity
  8
0
100
AcDbLine
 10
111.0504910330623
 20
141.2941551711922
 30
0.0
 11
113.1533892140232
 21
143.3970533521532
 31
0.0
  0
LINE
  5
44F
330
1F
100
AcDbEntity
  8
0
100
AcDbLine
 10
107.5631451893557
 20
137.8442859868885
 30
0.0
 11
109.0921388378284
 21
139.3732796353612
 31
0.0
  0
LINE
  5
450
330
1F
100
AcDbEntity
  8
0
100
AcDbLine
 10
111.0504910330623
 20
141.3316318305951
 30
0.0
 11
113.1390678065729
 21
143.4202086041057
 31
0.0
  0
LINE
  5
451
330
1F
100
AcDbEntity
  8
0
100
AcDbLine
 10
107.5256685299528
 20
137.8442859868885
 30
0.0
 11
109.0546621784255
 21
139.3732796353612
 31
0.0
  0
LINE
  5
452
330
1F
100
AcDbEntity
  8
0
100
AcDbLine
 10
111.0504910330623
 20
141.369108489998
 30
0.0
 11
113.1247463991226
 21
143.4433638560583
 31
0.0
  0
LINE
  5
453
330
1F
100
AcDbEntity
  8
0
100
AcDbLine
 10
107.4881918705499
 20
137.8442859868885
 30
0.0
 11
109.0171855190226
 21
139.3732796353612
 31
0.0
  0
LINE
  5
454
330
1F
100
AcDbEntity
  8
0
100
AcDbLine
 10
111.0504910330623
 20
141.4065851494009
 30
0.0
 11
113.1104249916723
 21
143.4665191080109
 31
0.0
  0
LINE
  5
455
330
1F
100
AcDbEntity
  8
0
100
AcDbLine
 10
107.450715211147
 20
137.8442859868885
 30
0.0
 11
108.9797088596197
 21
139.3732796353612
 31
0.0
  0
LINE
  5
456
330
1F
100
AcDbEntity
  8
0
100
AcDbLine
 10
111.0504910330623
 20
141.4440618088038
 30
0.0
 11
113.096103584222
 21
143.4896743599635
 31
0.0
  0
LINE
  5
457
330
1F
100
AcDbEntity
  8
0
100
AcDbLine
 10
107.4132385517441
 20
137.8442859868885
 30
0.0
 11
108.9422322002168
 21
139.3732796353612
 31
0.0
  0
LINE
  5
458
330
1F
100
AcDbEntity
  8
0
100
AcDbLine
 10
111.0504910330623
 20
141.4815384682067
 30
0.0
 11
113.0817821767717
 21
143.5128296119161
 31
0.0
  0
LINE
  5
459
330
1F
100
AcDbEntity
  8
0
100
AcDbLine
 10
107.3757618923412
 20
137.8442859868885
 30
0.0
 11
108.9047555408139
 21
139.3732796353612
 31
0.0
  0
LINE
  5
45A
330
1F
100
AcDbEntity
  8
0
100
AcDbLine
 10
109.8221517298552
 20
140.2906758244025
 30
0.0
 11
109.8272962782311
 21
140.2958203727784
 31
0.0
  0
LINE
  5
45B
330
1F
100
AcDbEntity
  8
0
100
AcDbLine
 10
111.0504910330623
 20
141.5190151276096
 30
0.0
 11
113.0674607693214
 21
143.5359848638687
 31
0.0
  0
LINE
  5
45C
330
1F
100
AcDbEntity
  8
0
100
AcDbLine
 10
107.3382852329383
 20
137.8442859868885
 30
0.0
 11
108.867278881411
 21
139.3732796353612
 31
0.0
  0
LINE
  5
45D
330
1F
100
AcDbEntity
  8
0
100
AcDbLine
 10
109.7846750704523
 20
140.2906758244025
 30
0.0
 11
109.8272962782311
 21
140.3332970321813
 31
0.0
  0
LINE
  5
45E
330
1F
100
AcDbEntity
  8
0
100
AcDbLine
 10
111.0504910330623
 20
141.5564917870125
 30
0.0
 11
113.0531393618711
 21
143.5591401158213
 31
0.0
  0
LINE
  5
45F
330
1F
100
AcDbEntity
  8
0
100
AcDbLine
 10
107.3008085735354
 20
137.8442859868885
 30
0.0
 11
108.8298022220081
 21
139.3732796353612
 31
0.0
  0
LINE
  5
460
330
1F
100
AcDbEntity
  8
0
100
AcDbLine
 10
109.7471984110495
 20
140.2906758244025
 30
0.0
 11
109.8272962782311
 21
140.3707736915842
 31
0.0
  0
LINE
  5
461
330
1F
100
AcDbEntity
  8
0
100
AcDbLine
 10
111.0504910330623
 20
141.5939684464153
 30
0.0
 11
113.0388179544208
 21
143.5822953677739
 31
0.0
  0
LINE
  5
462
330
1F
100
AcDbEntity
  8
0
100
AcDbLine
 10
107.2633319141326
 20
137.8442859868885
 30
0.0
 11
108.7923255626052
 21
139.3732796353612
 31
0.0
  0
LINE
  5
463
330
1F
100
AcDbEntity
  8
0
100
AcDbLine
 10
109.7097217516466
 20
140.2906758244025
 30
0.0
 11
109.8272962782311
 21
140.408250350987
 31
0.0
  0
LINE
  5
464
330
1F
100
AcDbEntity
  8
0
100
AcDbLine
 10
111.0504910330623
 20
141.6314451058182
 30
0.0
 11
113.0244965469705
 21
143.6054506197265
 31
0.0
  0
LINE
  5
465
330
1F
100
AcDbEntity
  8
0
100
AcDbLine
 10
107.2258552547297
 20
137.8442859868885
 30
0.0
 11
108.7548489032024
 21
139.3732796353612
 31
0.0
  0
LINE
  5
466
330
1F
100
AcDbEntity
  8
0
100
AcDbLine
 10
109.6722450922437
 20
140.2906758244025
 30
0.0
 11
109.8272962782311
 21
140.44572701039
 31
0.0
  0
LINE
  5
467
330
1F
100
AcDbEntity
  8
0
100
AcDbLine
 10
111.0504910330623
 20
141.6689217652211
 30
0.0
 11
113.0101751395202
 21
143.628605871679
 31
0.0
  0
LINE
  5
468
330
1F
100
AcDbEntity
  8
0
100
AcDbLine
 10
107.1883785953268
 20
137.8442859868885
 30
0.0
 11
108.7173722437995
 21
139.3732796353612
 31
0.0
  0
LINE
  5
469
330
1F
100
AcDbEntity
  8
0
100
AcDbLine
 10
109.6347684328408
 20
140.2906758244025
 30
0.0
 11
109.8272962782311
 21
140.4832036697928
 31
0.0
  0
LINE
  5
46A
330
1F
100
AcDbEntity
  8
0
100
AcDbLine
 10
111.0504910330623
 20
141.706398424624
 30
0.0
 11
112.9958537320699
 21
143.6517611236316
 31
0.0
  0
LINE
  5
46B
330
1F
100
AcDbEntity
  8
0
100
AcDbLine
 10
107.1509019359239
 20
137.8442859868885
 30
0.0
 11
108.6798955843966
 21
139.3732796353612
 31
0.0
  0
LINE
  5
46C
330
1F
100
AcDbEntity
  8
0
100
AcDbLine
 10
109.5972917734379
 20
140.2906758244025
 30
0.0
 11
109.8272962782311
 21
140.5206803291957
 31
0.0
  0
LINE
  5
46D
330
1F
100
AcDbEntity
  8
0
100
AcDbLine
 10
111.0504910330623
 20
141.7438750840269
 30
0.0
 11
112.9815323246196
 21
143.6749163755842
 31
0.0
  0
LINE
  5
46E
330
1F
100
AcDbEntity
  8
0
100
AcDbLine
 10
107.113425276521
 20
137.8442859868885
 30
0.0
 11
108.6424189249937
 21
139.3732796353612
 31
0.0
  0
LINE
  5
46F
330
1F
100
AcDbEntity
  8
0
100
AcDbLine
 10
109.559815114035
 20
140.2906758244025
 30
0.0
 11
109.8272962782311
 21
140.5581569885986
 31
0.0
  0
LINE
  5
470
330
1F
100
AcDbEntity
  8
0
100
AcDbLine
 10
111.0504910330623
 20
141.7813517434298
 30
0.0
 11
112.9672109171693
 21
143.6980716275368
 31
0.0
  0
LINE
  5
471
330
1F
100
AcDbEntity
  8
0
100
AcDbLine
 10
107.0759486171181
 20
137.8442859868885
 30
0.0
 11
108.6049422655908
 21
139.3732796353612
 31
0.0
  0
LINE
  5
472
330
1F
100
AcDbEntity
  8
0
100
AcDbLine
 10
109.5223384546321
 20
140.2906758244025
 30
0.0
 11
109.8272962782311
 21
140.5956336480015
 31
0.0
  0
LINE
  5
473
330
1F
100
AcDbEntity
  8
0
100
AcDbLine
 10
111.0504910330623
 20
141.8188284028327
 30
0.0
 11
112.952889509719
 21
143.7212268794894
 31
0.0
  0
LINE
  5
474
330
1F
100
AcDbEntity
  8
0
100
AcDbLine
 10
107.0384719577152
 20
137.8442859868885
 30
0.0
 11
108.5674656061879
 21
139.3732796353612
 31
0.0
  0
LINE
  5
475
330
1F
100
AcDbEntity
  8
0
100
AcDbLine
 10
109.4848617952292
 20
140.2906758244025
 30
0.0
 11
109.8272962782311
 21
140.6331103074044
 31
0.0
  0
LINE
  5
476
330
1F
100
AcDbEntity
  8
0
100
AcDbLine
 10
111.0504910330623
 20
141.8563050622356
 30
0.0
 11
112.9385681022687
 21
143.744382131442
 31
0.0
  0
LINE
  5
477
330
1F
100
AcDbEntity
  8
0
100
AcDbLine
 10
107.0009952983123
 20
137.8442859868885
 30
0.0
 11
108.529988946785
 21
139.3732796353612
 31
0.0
  0
LINE
  5
478
330
1F
100
AcDbEntity
  8
0
100
AcDbLine
 10
109.4473851358264
 20
140.2906758244025
 30
0.0
 11
109.8272962782311
 21
140.6705869668073
 31
0.0
  0
LINE
  5
479
330
1F
100
AcDbEntity
  8
0
100
AcDbLine
 10
111.0504910330623
 20
141.8937817216384
 30
0.0
 11
112.9242466948184
 21
143.7675373833946
 31
0.0
  0
LINE
  5
47A
330
1F
100
AcDbEntity
  8
0
100
AcDbLine
 10
106.9635186389094
 20
137.8442859868885
 30
0.0
 11
108.4925122873822
 21
139.3732796353612
 31
0.0
  0
LINE
  5
47B
330
1F
100
AcDbEntity
  8
0
100
AcDbLine
 10
109.4099084764235
 20
140.2906758244025
 30
0.0
 11
109.8272962782311
 21
140.7080636262102
 31
0.0
  0
LINE
  5
47C
330
1F
100
AcDbEntity
  8
0
100
AcDbLine
 10
111.0504910330623
 20
141.9312583810413
 30
0.0
 11
112.9099252873681
 21
143.7906926353472
 31
0.0
  0
LINE
  5
47D
330
1F
100
AcDbEntity
  8
0
100
AcDbLine
 10
106.9260419795066
 20
137.8442859868885
 30
0.0
 11
108.4550356279792
 21
139.3732796353612
 31
0.0
  0
LINE
  5
47E
330
1F
100
AcDbEntity
  8
0
100
AcDbLine
 10
109.3724318170206
 20
140.2906758244025
 30
0.0
 11
109.8272962782311
 21
140.745540285613
 31
0.0
  0
LINE
  5
47F
330
1F
100
AcDbEntity
  8
0
100
AcDbLine
 10
111.0504910330623
 20
141.9687350404442
 30
0.0
 11
112.8891152407431
 21
143.807359248125
 31
0.0
  0
LINE
  5
480
330
1F
100
AcDbEntity
  8
0
100
AcDbLine
 10
106.8885653201037
 20
137.8442859868885
 30
0.0
 11
108.4175589685764
 21
139.3732796353612
 31
0.0
  0
LINE
  5
481
330
1F
100
AcDbEntity
  8
0
100
AcDbLine
 10
109.3349551576177
 20
140.2906758244025
 30
0.0
 11
109.8272962782311
 21
140.7830169450159
 31
0.0
  0
LINE
  5
482
330
1F
100
AcDbEntity
  8
0
100
AcDbLine
 10
111.0504910330623
 20
142.0062116998471
 30
0.0
 11
112.8516385813402
 21
143.807359248125
 31
0.0
  0
LINE
  5
483
330
1F
100
AcDbEntity
  8
0
100
AcDbLine
 10
106.8510886607008
 20
137.8442859868885
 30
0.0
 11
108.3800823091735
 21
139.3732796353612
 31
0.0
  0
LINE
  5
484
330
1F
100
AcDbEntity
  8
0
100
AcDbLine
 10
109.2974784982148
 20
140.2906758244025
 30
0.0
 11
109.8272962782311
 21
140.8204936044188
 31
0.0
  0
LINE
  5
485
330
1F
100
AcDbEntity
  8
0
100
AcDbLine
 10
111.0504910330623
 20
142.04368835925
 30
0.0
 11
112.8141619219373
 21
143.807359248125
 31
0.0
  0
LINE
  5
486
330
1F
100
AcDbEntity
  8
0
100
AcDbLine
 10
106.8136120012979
 20
137.8442859868885
 30
0.0
 11
108.3426056497706
 21
139.3732796353612
 31
0.0
  0
LINE
  5
487
330
1F
100
AcDbEntity
  8
0
100
AcDbLine
 10
109.2600018388119
 20
140.2906758244025
 30
0.0
 11
109.8272962782311
 21
140.8579702638217
 31
0.0
  0
LINE
  5
488
330
1F
100
AcDbEntity
  8
0
100
AcDbLine
 10
111.0504910330623
 20
142.0811650186529
 30
0.0
 11
112.7766852625344
 21
143.807359248125
 31
0.0
  0
LINE
  5
489
330
1F
100
AcDbEntity
  8
0
100
AcDbLine
 10
106.776135341895
 20
137.8442859868885
 30
0.0
 11
108.3051289903677
 21
139.3732796353612
 31
0.0
  0
LINE
  5
48A
330
1F
100
AcDbEntity
  8
0
100
AcDbLine
 10
109.222525179409
 20
140.2906758244025
 30
0.0
 11
109.8272962782311
 21
140.8954469232246
 31
0.0
  0
LINE
  5
48B
330
1F
100
AcDbEntity
  8
0
100
AcDbLine
 10
111.0504910330623
 20
142.1186416780558
 30
0.0
 11
112.7392086031315
 21
143.807359248125
 31
0.0
  0
LINE
  5
48C
330
1F
100
AcDbEntity
  8
0
100
AcDbLine
 10
106.7386586824921
 20
137.8442859868885
 30
0.0
 11
108.2676523309648
 21
139.3732796353612
 31
0.0
  0
LINE
  5
48D
330
1F
100
AcDbEntity
  8
0
100
AcDbLine
 10
109.1850485200061
 20
140.2906758244025
 30
0.0
 11
109.8272962782311
 21
140.9329235826275
 31
0.0
  0
LINE
  5
48E
330
1F
100
AcDbEntity
  8
0
100
AcDbLine
 10
111.0504910330623
 20
142.1561183374587
 30
0.0
 11
112.7017319437286
 21
143.807359248125
 31
0.0
  0
LINE
  5
48F
330
1F
100
AcDbEntity
  8
0
100
AcDbLine
 10
106.7011820230893
 20
137.8442859868885
 30
0.0
 11
108.2301756715619
 21
139.3732796353612
 31
0.0
  0
LINE
  5
490
330
1F
100
AcDbEntity
  8
0
100
AcDbLine
 10
109.1475718606033
 20
140.2906758244025
 30
0.0
 11
109.8272962782311
 21
140.9704002420304
 31
0.0
  0
LINE
  5
491
330
1F
100
AcDbEntity
  8
0
100
AcDbLine
 10
111.0504910330623
 20
142.1935949968616
 30
0.0
 11
112.6642552843257
 21
143.807359248125
 31
0.0
  0
LINE
  5
492
330
1F
100
AcDbEntity
  8
0
100
AcDbLine
 10
106.6637053636863
 20
137.8442859868885
 30
0.0
 11
108.1926990121591
 21
139.3732796353612
 31
0.0
  0
LINE
  5
493
330
1F
100
AcDbEntity
  8
0
100
AcDbLine
 10
109.1100952012004
 20
140.2906758244025
 30
0.0
 11
109.8272962782311
 21
141.0078769014333
 31
0.0
  0
LINE
  5
494
330
1F
100
AcDbEntity
  8
0
100
AcDbLine
 10
111.0504910330623
 20
142.2310716562644
 30
0.0
 11
112.6267786249229
 21
143.807359248125
 31
0.0
  0
LINE
  5
495
330
1F
100
AcDbEntity
  8
0
100
AcDbLine
 10
106.6262287042835
 20
137.8442859868885
 30
0.0
 11
108.1552223527562
 21
139.3732796353612
 31
0.0
  0
LINE
  5
496
330
1F
100
AcDbEntity
  8
0
100
AcDbLine
 10
109.0726185417975
 20
140.2906758244025
 30
0.0
 11
109.8272962782311
 21
141.0453535608362
 31
0.0
  0
LINE
  5
497
330
1F
100
AcDbEntity
  8
0
100
AcDbLine
 10
111.0504910330623
 20
142.2685483156673
 30
0.0
 11
112.58930196552
 21
143.807359248125
 31
0.0
  0
LINE
  5
498
330
1F
100
AcDbEntity
  8
0
100
AcDbLine
 10
106.5887520448806
 20
137.8442859868885
 30
0.0
 11
108.1177456933533
 21
139.3732796353612
 31
0.0
  0
LINE
  5
499
330
1F
100
AcDbEntity
  8
0
100
AcDbLine
 10
109.0351418823946
 20
140.2906758244025
 30
0.0
 11
109.8272962782311
 21
141.082830220239
 31
0.0
  0
LINE
  5
49A
330
1F
100
AcDbEntity
  8
0
100
AcDbLine
 10
111.0504910330623
 20
142.3060249750702
 30
0.0
 11
112.5518253061171
 21
143.807359248125
 31
0.0
  0
LINE
  5
49B
330
1F
100
AcDbEntity
  8
0
100
AcDbLine
 10
106.5512753854777
 20
137.8442859868885
 30
0.0
 11
108.0802690339504
 21
139.3732796353612
 31
0.0
  0
LINE
  5
49C
330
1F
100
AcDbEntity
  8
0
100
AcDbLine
 10
108.9976652229917
 20
140.2906758244025
 30
0.0
 11
109.8272962782311
 21
141.1203068796419
 31
0.0
  0
LINE
  5
49D
330
1F
100
AcDbEntity
  8
0
100
AcDbLine
 10
111.0504910330623
 20
142.3435016344731
 30
0.0
 11
112.5143486467142
 21
143.807359248125
 31
0.0
  0
LINE
  5
49E
330
1F
100
AcDbEntity
  8
0
100
AcDbLine
 10
106.5137987260748
 20
137.8442859868885
 30
0.0
 11
108.0427923745475
 21
139.3732796353612
 31
0.0
  0
LINE
  5
49F
330
1F
100
AcDbEntity
  8
0
100
AcDbLine
 10
108.9601885635888
 20
140.2906758244025
 30
0.0
 11
109.8272962782311
 21
141.1577835390448
 31
0.0
  0
LINE
  5
4A0
330
1F
100
AcDbEntity
  8
0
100
AcDbLine
 10
111.0504910330623
 20
142.380978293876
 30
0.0
 11
112.4768719873113
 21
143.807359248125
 31
0.0
  0
LINE
  5
4A1
330
1F
100
AcDbEntity
  8
0
100
AcDbLine
 10
106.4763220666719
 20
137.8442859868885
 30
0.0
 11
108.0053157151446
 21
139.3732796353612
 31
0.0
  0
LINE
  5
4A2
330
1F
100
AcDbEntity
  8
0
100
AcDbLine
 10
108.9227119041859
 20
140.2906758244025
 30
0.0
 11
109.8272962782311
 21
141.1952601984477
 31
0.0
  0
LINE
  5
4A3
330
1F
100
AcDbEntity
  8
0
100
AcDbLine
 10
111.0504910330623
 20
142.4184549532789
 30
0.0
 11
112.4393953279084
 21
143.807359248125
 31
0.0
  0
LINE
  5
4A4
330
1F
100
AcDbEntity
  8
0
100
AcDbLine
 10
106.438845407269
 20
137.8442859868885
 30
0.0
 11
107.9678390557417
 21
139.3732796353612
 31
0.0
  0
LINE
  5
4A5
330
1F
100
AcDbEntity
  8
0
100
AcDbLine
 10
108.885235244783
 20
140.2906758244025
 30
0.0
 11
109.8272962782311
 21
141.2327368578506
 31
0.0
  0
LINE
  5
4A6
330
1F
100
AcDbEntity
  8
0
100
AcDbLine
 10
111.0504910330623
 20
142.4559316126818
 30
0.0
 11
112.4019186685055
 21
143.807359248125
 31
0.0
  0
LINE
  5
4A7
330
1F
100
AcDbEntity
  8
0
100
AcDbLine
 10
106.4013687478661
 20
137.8442859868885
 30
0.0
 11
107.9303623963388
 21
139.3732796353612
 31
0.0
  0
LINE
  5
4A8
330
1F
100
AcDbEntity
  8
0
100
AcDbLine
 10
108.8477585853801
 20
140.2906758244025
 30
0.0
 11
109.8272962782311
 21
141.2702135172535
 31
0.0
  0
LINE
  5
4A9
330
1F
100
AcDbEntity
  8
0
100
AcDbLine
 10
111.0504910330623
 20
142.4934082720847
 30
0.0
 11
112.3644420091026
 21
143.807359248125
 31
0.0
  0
LINE
  5
4AA
330
1F
100
AcDbEntity
  8
0
100
AcDbLine
 10
106.3638920884632
 20
137.8442859868885
 30
0.0
 11
107.8928857369359
 21
139.3732796353612
 31
0.0
  0
LINE
  5
4AB
330
1F
100
AcDbEntity
  8
0
100
AcDbLine
 10
108.8102819259773
 20
140.2906758244025
 30
0.0
 11
109.8272962782311
 21
141.3076901766564
 31
0.0
  0
LINE
  5
4AC
330
1F
100
AcDbEntity
  8
0
100
AcDbLine
 10
111.0504910330623
 20
142.5308849314875
 30
0.0
 11
112.3269653496998
 21
143.807359248125
 31
0.0
  0
LINE
  5
4AD
330
1F
100
AcDbEntity
  8
0
100
AcDbLine
 10
106.3264154290604
 20
137.8442859868885
 30
0.0
 11
107.855409077533
 21
139.3732796353612
 31
0.0
  0
LINE
  5
4AE
330
1F
100
AcDbEntity
  8
0
100
AcDbLine
 10
108.7728052665744
 20
140.2906758244025
 30
0.0
 11
109.8272962782311
 21
141.3451668360592
 31
0.0
  0
LINE
  5
4AF
330
1F
100
AcDbEntity
  8
0
100
AcDbLine
 10
111.0504910330623
 20
142.5683615908904
 30
0.0
 11
112.2894886902969
 21
143.807359248125
 31
0.0
  0
LINE
  5
4B0
330
1F
100
AcDbEntity
  8
0
100
AcDbLine
 10
106.2889387696575
 20
137.8442859868885
 30
0.0
 11
107.8179324181302
 21
139.3732796353612
 31
0.0
  0
LINE
  5
4B1
330
1F
100
AcDbEntity
  8
0
100
AcDbLine
 10
108.7353286071715
 20
140.2906758244025
 30
0.0
 11
109.8272962782311
 21
141.3826434954621
 31
0.0
  0
LINE
  5
4B2
330
1F
100
AcDbEntity
  8
0
100
AcDbLine
 10
111.0504910330623
 20
142.6058382502933
 30
0.0
 11
112.252012030894
 21
143.807359248125
 31
0.0
  0
LINE
  5
4B3
330
1F
100
AcDbEntity
  8
0
100
AcDbLine
 10
106.2514621102546
 20
137.8442859868885
 30
0.0
 11
107.7804557587273
 21
139.3732796353612
 31
0.0
  0
LINE
  5
4B4
330
1F
100
AcDbEntity
  8
0
100
AcDbLine
 10
108.6978519477686
 20
140.2906758244025
 30
0.0
 11
109.8272962782311
 21
141.420120154865
 31
0.0
  0
LINE
  5
4B5
330
1F
100
AcDbEntity
  8
0
100
AcDbLine
 10
111.0504910330623
 20
142.6433149096962
 30
0.0
 11
112.2145353714911
 21
143.807359248125
 31
0.0
  0
LINE
  5
4B6
330
1F
100
AcDbEntity
  8
0
100
AcDbLine
 10
106.2139854508517
 20
137.8442859868885
 30
0.0
 11
107.7429790993244
 21
139.3732796353612
 31
0.0
  0
LINE
  5
4B7
330
1F
100
AcDbEntity
  8
0
100
AcDbLine
 10
108.6603752883657
 20
140.2906758244025
 30
0.0
 11
109.8272962782311
 21
141.4575968142679
 31
0.0
  0
LINE
  5
4B8
330
1F
100
AcDbEntity
  8
0
100
AcDbLine
 10
111.0504910330623
 20
142.6807915690991
 30
0.0
 11
112.1770587120882
 21
143.807359248125
 31
0.0
  0
LINE
  5
4B9
330
1F
100
AcDbEntity
  8
0
100
AcDbLine
 10
106.1765087914488
 20
137.8442859868885
 30
0.0
 11
107.7055024399215
 21
139.3732796353612
 31
0.0
  0
LINE
  5
4BA
330
1F
100
AcDbEntity
  8
0
100
AcDbLine
 10
108.6228986289628
 20
140.2906758244025
 30
0.0
 11
109.8272962782311
 21
141.4950734736708
 31
0.0
  0
LINE
  5
4BB
330
1F
100
AcDbEntity
  8
0
100
AcDbLine
 10
111.0504910330623
 20
142.718268228502
 30
0.0
 11
112.1395820526853
 21
143.807359248125
 31
0.0
  0
LINE
  5
4BC
330
1F
100
AcDbEntity
  8
0
100
AcDbLine
 10
106.1390321320459
 20
137.8442859868885
 30
0.0
 11
107.6680257805186
 21
139.3732796353612
 31
0.0
  0
LINE
  5
4BD
330
1F
100
AcDbEntity
  8
0
100
AcDbLine
 10
108.5854219695599
 20
140.2906758244025
 30
0.0
 11
109.8272962782311
 21
141.5325501330737
 31
0.0
  0
LINE
  5
4BE
330
1F
100
AcDbEntity
  8
0
100
AcDbLine
 10
111.0504910330623
 20
142.7557448879049
 30
0.0
 11
112.1021053932824
 21
143.807359248125
 31
0.0
  0
LINE
  5
4BF
330
1F
100
AcDbEntity
  8
0
100
AcDbLine
 10
106.1015554726431
 20
137.8442859868885
 30
0.0
 11
107.6305491211157
 21
139.3732796353612
 31
0.0
  0
LINE
  5
4C0
330
1F
100
AcDbEntity
  8
0
100
AcDbLine
 10
108.547945310157
 20
140.2906758244025
 30
0.0
 11
109.8272962782311
 21
141.5700267924766
 31
0.0
  0
LINE
  5
4C1
330
1F
100
AcDbEntity
  8
0
100
AcDbLine
 10
111.0504910330623
 20
142.7932215473078
 30
0.0
 11
112.0646287338795
 21
143.807359248125
 31
0.0
  0
LINE
  5
4C2
330
1F
100
AcDbEntity
  8
0
100
AcDbLine
 10
106.0640788132401
 20
137.8442859868885
 30
0.0
 11
107.5930724617128
 21
139.3732796353612
 31
0.0
  0
LINE
  5
4C3
330
1F
100
AcDbEntity
  8
0
100
AcDbLine
 10
108.5104686507542
 20
140.2906758244025
 30
0.0
 11
109.8101122680946
 21
141.590319441743
 31
0.0
  0
LINE
  5
4C4
330
1F
100
AcDbEntity
  8
0
100
AcDbLine
 10
111.0504910330623
 20
142.8306982067107
 30
0.0
 11
112.0271520744767
 21
143.807359248125
 31
0.0
  0
LINE
  5
4C5
330
1F
100
AcDbEntity
  8
0
100
AcDbLine
 10
106.0266021538373
 20
137.8442859868885
 30
0.0
 11
107.55559580231
 21
139.3732796353612
 31
0.0
  0
LINE
  5
4C6
330
1F
100
AcDbEntity
  8
0
100
AcDbLine
 10
108.4729919913513
 20
140.2906758244025
 30
0.0
 11
109.7726356086917
 21
141.590319441743
 31
0.0
  0
LINE
  5
4C7
330
1F
100
AcDbEntity
  8
0
100
AcDbLine
 10
111.0504910330623
 20
142.8681748661135
 30
0.0
 11
111.9896754150738
 21
143.807359248125
 31
0.0
  0
LINE
  5
4C8
330
1F
100
AcDbEntity
  8
0
100
AcDbLine
 10
105.9891254944344
 20
137.8442859868885
 30
0.0
 11
107.5181191429071
 21
139.3732796353612
 31
0.0
  0
LINE
  5
4C9
330
1F
100
AcDbEntity
  8
0
100
AcDbLine
 10
108.4355153319484
 20
140.2906758244025
 30
0.0
 11
109.7351589492889
 21
141.590319441743
 31
0.0
  0
LINE
  5
4CA
330
1F
100
AcDbEntity
  8
0
100
AcDbLine
 10
111.0504910330623
 20
142.9056515255164
 30
0.0
 11
111.9521987556709
 21
143.807359248125
 31
0.0
  0
LINE
  5
4CB
330
1F
100
AcDbEntity
  8
0
100
AcDbLine
 10
105.9516488350315
 20
137.8442859868885
 30
0.0
 11
107.4806424835042
 21
139.3732796353612
 31
0.0
  0
LINE
  5
4CC
330
1F
100
AcDbEntity
  8
0
100
AcDbLine
 10
108.3980386725455
 20
140.2906758244025
 30
0.0
 11
109.697682289886
 21
141.590319441743
 31
0.0
  0
LINE
  5
4CD
330
1F
100
AcDbEntity
  8
0
100
AcDbLine
 10
111.0504910330623
 20
142.9431281849193
 30
0.0
 11
111.914722096268
 21
143.807359248125
 31
0.0
  0
LINE
  5
4CE
330
1F
100
AcDbEntity
  8
0
100
AcDbLine
 10
105.9141721756286
 20
137.8442859868885
 30
0.0
 11
107.4431658241013
 21
139.3732796353612
 31
0.0
  0
LINE
  5
4CF
330
1F
100
AcDbEntity
  8
0
100
AcDbLine
 10
108.3605620131426
 20
140.2906758244025
 30
0.0
 11
109.6602056304831
 21
141.590319441743
 31
0.0
  0
LINE
  5
4D0
330
1F
100
AcDbEntity
  8
0
100
AcDbLine
 10
111.0504910330623
 20
142.9806048443222
 30
0.0
 11
111.8772454368651
 21
143.807359248125
 31
0.0
  0
LINE
  5
4D1
330
1F
100
AcDbEntity
  8
0
100
AcDbLine
 10
105.8766955162257
 20
137.8442859868885
 30
0.0
 11
107.4056891646984
 21
139.3732796353612
 31
0.0
  0
LINE
  5
4D2
330
1F
100
AcDbEntity
  8
0
100
AcDbLine
 10
108.3230853537397
 20
140.2906758244025
 30
0.0
 11
109.6227289710802
 21
141.590319441743
 31
0.0
  0
LINE
  5
4D3
330
1F
100
AcDbEntity
  8
0
100
AcDbLine
 10
111.0504910330623
 20
143.0180815037251
 30
0.0
 11
111.8397687774622
 21
143.807359248125
 31
0.0
  0
LINE
  5
4D4
330
1F
100
AcDbEntity
  8
0
100
AcDbLine
 10
105.8392188568228
 20
137.8442859868885
 30
0.0
 11
107.3682125052955
 21
139.3732796353612
 31
0.0
  0
LINE
  5
4D5
330
1F
100
AcDbEntity
  8
0
100
AcDbLine
 10
108.2856086943368
 20
140.2906758244025
 30
0.0
 11
109.5852523116773
 21
141.590319441743
 31
0.0
  0
LINE
  5
4D6
330
1F
100
AcDbEntity
  8
0
100
AcDbLine
 10
111.0504910330623
 20
143.055558163128
 30
0.0
 11
111.8022921180593
 21
143.807359248125
 31
0.0
  0
LINE
  5
4D7
330
1F
100
AcDbEntity
  8
0
100
AcDbLine
 10
105.8017421974199
 20
137.8442859868885
 30
0.0
 11
107.3307358458926
 21
139.3732796353612
 31
0.0
  0
LINE
  5
4D8
330
1F
100
AcDbEntity
  8
0
100
AcDbLine
 10
108.248132034934
 20
140.2906758244025
 30
0.0
 11
109.5477756522744
 21
141.590319441743
 31
0.0
  0
LINE
  5
4D9
330
1F
100
AcDbEntity
  8
0
100
AcDbLine
 10
111.0504910330623
 20
143.0930348225309
 30
0.0
 11
111.7648154586564
 21
143.807359248125
 31
0.0
  0
LINE
  5
4DA
330
1F
100
AcDbEntity
  8
0
100
AcDbLine
 10
105.7642655380171
 20
137.8442859868885
 30
0.0
 11
107.2932591864897
 21
139.3732796353612
 31
0.0
  0
LINE
  5
4DB
330
1F
100
AcDbEntity
  8
0
100
AcDbLine
 10
108.2106553755311
 20
140.2906758244025
 30
0.0
 11
109.5102989928715
 21
141.590319441743
 31
0.0
  0
LINE
  5
4DC
330
1F
100
AcDbEntity
  8
0
100
AcDbLine
 10
111.0504910330623
 20
143.1305114819338
 30
0.0
 11
111.7273387992536
 21
143.807359248125
 31
0.0
  0
LINE
  5
4DD
330
1F
100
AcDbEntity
  8
0
100
AcDbLine
 10
105.7267888786142
 20
137.8442859868885
 30
0.0
 11
107.2557825270869
 21
139.3732796353612
 31
0.0
  0
LINE
  5
4DE
330
1F
100
AcDbEntity
  8
0
100
AcDbLine
 10
108.1731787161282
 20
140.2906758244025
 30
0.0
 11
109.4728223334687
 21
141.590319441743
 31
0.0
  0
LINE
  5
4DF
330
1F
100
AcDbEntity
  8
0
100
AcDbLine
 10
111.0504910330623
 20
143.1679881413366
 30
0.0
 11
111.6898621398507
 21
143.807359248125
 31
0.0
  0
LINE
  5
4E0
330
1F
100
AcDbEntity
  8
0
100
AcDbLine
 10
105.6893122192113
 20
137.8442859868885
 30
0.0
 11
107.218305867684
 21
139.3732796353612
 31
0.0
  0
LINE
  5
4E1
330
1F
100
AcDbEntity
  8
0
100
AcDbLine
 10
108.1357020567253
 20
140.2906758244025
 30
0.0
 11
109.4353456740658
 21
141.590319441743
 31
0.0
  0
LINE
  5
4E2
330
1F
100
AcDbEntity
  8
0
100
AcDbLine
 10
111.0504910330623
 20
143.2054648007395
 30
0.0
 11
111.6523854804478
 21
143.807359248125
 31
0.0
  0
LINE
  5
4E3
330
1F
100
AcDbEntity
  8
0
100
AcDbLine
 10
105.6518355598084
 20
137.8442859868885
 30
0.0
 11
107.1808292082811
 21
139.3732796353612
 31
0.0
  0
LINE
  5
4E4
330
1F
100
AcDbEntity
  8
0
100
AcDbLine
 10
108.0982253973224
 20
140.2906758244025
 30
0.0
 11
109.3978690146629
 21
141.590319441743
 31
0.0
  0
LINE
  5
4E5
330
1F
100
AcDbEntity
  8
0
100
AcDbLine
 10
111.0504910330623
 20
143.2429414601424
 30
0.0
 11
111.6149088210449
 21
143.807359248125
 31
0.0
  0
LINE
  5
4E6
330
1F
100
AcDbEntity
  8
0
100
AcDbLine
 10
105.6143589004055
 20
137.8442859868885
 30
0.0
 11
107.1433525488782
 21
139.3732796353612
 31
0.0
  0
LINE
  5
4E7
330
1F
100
AcDbEntity
  8
0
100
AcDbLine
 10
108.0607487379195
 20
140.2906758244025
 30
0.0
 11
109.36039235526
 21
141.590319441743
 31
0.0
  0
LINE
  5
4E8
330
1F
100
AcDbEntity
  8
0
100
AcDbLine
 10
110.0484398250687
 20
142.2783669115517
 30
0.0
 11
110.0566453255266
 21
142.2865724120096
 31
0.0
  0
LINE
  5
4E9
330
1F
100
AcDbEntity
  8
0
100
AcDbLine
 10
111.0504910330623
 20
143.2804181195453
 30
0.0
 11
111.577432161642
 21
143.807359248125
 31
0.0
  0
LINE
  5
4EA
330
1F
100
AcDbEntity
  8
0
100
AcDbLine
 10
105.5768822410026
 20
137.8442859868885
 30
0.0
 11
107.1058758894753
 21
139.3732796353612
 31
0.0
  0
LINE
  5
4EB
330
1F
100
AcDbEntity
  8
0
100
AcDbLine
 10
108.0232720785167
 20
140.2906758244025
 30
0.0
 11
109.3229156958571
 21
141.590319441743
 31
0.0
  0
LINE
  5
4EC
330
1F
100
AcDbEntity
  8
0
100
AcDbLine
 10
110.0109631656658
 20
142.2783669115517
 30
0.0
 11
110.0566453255266
 21
142.3240490714124
 31
0.0
  0
LINE
  5
4ED
330
1F
100
AcDbEntity
  8
0
100
AcDbLine
 10
111.0504910330623
 20
143.3178947789482
 30
0.0
 11
111.5399555022391
 21
143.807359248125
 31
0.0
  0
LINE
  5
4EE
330
1F
100
AcDbEntity
  8
0
100
AcDbLine
 10
105.5394055815998
 20
137.8442859868885
 30
0.0
 11
107.0751086948732
 21
139.3799891001619
 31
0.0
  0
LINE
  5
4EF
330
1F
100
AcDbEntity
  8
0
100
AcDbLine
 10
107.9857954191138
 20
140.2906758244025
 30
0.0
 11
109.2854390364542
 21
141.590319441743
 31
0.0
  0
LINE
  5
4F0
330
1F
100
AcDbEntity
  8
0
100
AcDbLine
 10
109.973486506263
 20
142.2783669115517
 30
0.0
 11
110.0566453255266
 21
142.3615257308153
 31
0.0
  0
LINE
  5
4F1
330
1F
100
AcDbEntity
  8
0
100
AcDbLine
 10
111.0504910330623
 20
143.3553714383511
 30
0.0
 11
111.5024788428363
 21
143.807359248125
 31
0.0
  0
LINE
  5
4F2
330
1F
100
AcDbEntity
  8
0
100
AcDbLine
 10
105.5019289221969
 20
137.8442859868885
 30
0.0
 11
107.0751086948732
 21
139.4174657595648
 31
0.0
  0
LINE
  5
4F3
330
1F
100
AcDbEntity
  8
0
100
AcDbLine
 10
107.9483187597109
 20
140.2906758244025
 30
0.0
 11
109.2479623770514
 21
141.590319441743
 31
0.0
  0
LINE
  5
4F4
330
1F
100
AcDbEntity
  8
0
100
AcDbLine
 10
109.93600984686
 20
142.2783669115517
 30
0.0
 11
110.0566453255266
 21
142.3990023902182
 31
0.0
  0
LINE
  5
4F5
330
1F
100
AcDbEntity
  8
0
100
AcDbLine
 10
111.0504910330623
 20
143.3928480977539
 30
0.0
 11
111.4650021834334
 21
143.807359248125
 31
0.0
  0
LINE
  5
4F6
330
1F
100
AcDbEntity
  8
0
100
AcDbLine
 10
105.464452262794
 20
137.8442859868885
 30
0.0
 11
107.0751086948732
 21
139.4549424189677
 31
0.0
  0
LINE
  5
4F7
330
1F
100
AcDbEntity
  8
0
100
AcDbLine
 10
107.910842100308
 20
140.2906758244025
 30
0.0
 11
109.2104857176485
 21
141.590319441743
 31
0.0
  0
LINE
  5
4F8
330
1F
100
AcDbEntity
  8
0
100
AcDbLine
 10
109.8985331874572
 20
142.2783669115517
 30
0.0
 11
110.0566453255266
 21
142.4364790496211
 31
0.0
  0
LINE
  5
4F9
330
1F
100
AcDbEntity
  8
0
100
AcDbLine
 10
111.0504910330623
 20
143.4303247571568
 30
0.0
 11
111.4275255240305
 21
143.807359248125
 31
0.0
  0
LINE
  5
4FA
330
1F
100
AcDbEntity
  8
0
100
AcDbLine
 10
105.4269756033911
 20
137.8442859868885
 30
0.0
 11
107.0751086948732
 21
139.4924190783706
 31
0.0
  0
LINE
  5
4FB
330
1F
100
AcDbEntity
  8
0
100
AcDbLine
 10
107.8733654409051
 20
140.2906758244025
 30
0.0
 11
109.1730090582456
 21
141.590319441743
 31
0.0
  0
LINE
  5
4FC
330
1F
100
AcDbEntity
  8
0
100
AcDbLine
 10
109.8610565280543
 20
142.2783669115517
 30
0.0
 11
110.0566453255266
 21
142.473955709024
 31
0.0
  0
LINE
  5
4FD
330
1F
100
AcDbEntity
  8
0
100
AcDbLine
 10
111.0504910330623
 20
143.4678014165597
 30
0.0
 11
111.3900488646276
 21
143.807359248125
 31
0.0
  0
LINE
  5
4FE
330
1F
100
AcDbEntity
  8
0
100
AcDbLine
 10
105.3894989439882
 20
137.8442859868885
 30
0.0
 11
107.0751086948732
 21
139.5298957377735
 31
0.0
  0
LINE
  5
4FF
330
1F
100
AcDbEntity
  8
0
100
AcDbLine
 10
107.8358887815022
 20
140.2906758244025
 30
0.0
 11
109.1355323988427
 21
141.590319441743
 31
0.0
  0
LINE
  5
500
330
1F
100
AcDbEntity
  8
0
100
AcDbLine
 10
109.8235798686514
 20
142.2783669115517
 30
0.0
 11
110.0566453255266
 21
142.5114323684269
 31
0.0
  0
LINE
  5
501
330
1F
100
AcDbEntity
  8
0
100
AcDbLine
 10
111.0504910330623
 20
143.5052780759626
 30
0.0
 11
111.3525722052247
 21
143.807359248125
 31
0.0
  0
LINE
  5
502
330
1F
100
AcDbEntity
  8
0
100
AcDbLine
 10
105.3520222845853
 20
137.8442859868885
 30
0.0
 11
107.0751086948732
 21
139.5673723971764
 31
0.0
  0
LINE
  5
503
330
1F
100
AcDbEntity
  8
0
100
AcDbLine
 10
107.7984121220993
 20
140.2906758244025
 30
0.0
 11
109.0980557394398
 21
141.590319441743
 31
0.0
  0
LINE
  5
504
330
1F
100
AcDbEntity
  8
0
100
AcDbLine
 10
109.7861032092485
 20
142.2783669115517
 30
0.0
 11
110.0566453255266
 21
142.5489090278298
 31
0.0
  0
LINE
  5
505
330
1F
100
AcDbEntity
  8
0
100
AcDbLine
 10
111.0504910330623
 20
143.5427547353655
 30
0.0
 11
111.3150955458218
 21
143.807359248125
 31
0.0
  0
LINE
  5
506
330
1F
100
AcDbEntity
  8
0
100
AcDbLine
 10
105.3145456251825
 20
137.8442859868885
 30
0.0
 11
107.0751086948732
 21
139.6048490565792
 31
0.0
  0
LINE
  5
507
330
1F
100
AcDbEntity
  8
0
100
AcDbLine
 10
107.7609354626965
 20
140.2906758244025
 30
0.0
 11
109.0605790800369
 21
141.590319441743
 31
0.0
  0
LINE
  5
508
330
1F
100
AcDbEntity
  8
0
100
AcDbLine
 10
109.7486265498457
 20
142.2783669115517
 30
0.0
 11
110.0566453255266
 21
142.5863856872326
 31
0.0
  0
LINE
  5
509
330
1F
100
AcDbEntity
  8
0
100
AcDbLine
 10
111.0504910330623
 20
143.5802313947684
 30
0.0
 11
111.277618886419
 21
143.807359248125
 31
0.0
  0
LINE
  5
50A
330
1F
100
AcDbEntity
  8
0
100
AcDbLine
 10
105.2770689657796
 20
137.8442859868885
 30
0.0
 11
107.0751086948732
 21
139.6423257159821
 31
0.0
  0
LINE
  5
50B
330
1F
100
AcDbEntity
  8
0
100
AcDbLine
 10
107.7234588032936
 20
140.2906758244025
 30
0.0
 11
109.0231024206341
 21
141.590319441743
 31
0.0
  0
LINE
  5
50C
330
1F
100
AcDbEntity
  8
0
100
AcDbLine
 10
109.7111498904428
 20
142.2783669115517
 30
0.0
 11
110.0566453255266
 21
142.6238623466355
 31
0.0
  0
LINE
  5
50D
330
1F
100
AcDbEntity
  8
0
100
AcDbLine
 10
111.0504910330623
 20
143.6177080541712
 30
0.0
 11
111.2401422270161
 21
143.807359248125
 31
0.0
  0
LINE
  5
50E
330
1F
100
AcDbEntity
  8
0
100
AcDbLine
 10
105.2395923063767
 20
137.8442859868885
 30
0.0
 11
107.0751086948732
 21
139.679802375385
 31
0.0
  0
LINE
  5
50F
330
1F
100
AcDbEntity
  8
0
100
AcDbLine
 10
107.6859821438907
 20
140.2906758244025
 30
0.0
 11
108.9856257612312
 21
141.590319441743
 31
0.0
  0
LINE
  5
510
330
1F
100
AcDbEntity
  8
0
100
AcDbLine
 10
109.6736732310399
 20
142.2783669115517
 30
0.0
 11
110.0566453255266
 21
142.6613390060384
 31
0.0
  0
LINE
  5
511
330
1F
100
AcDbEntity
  8
0
100
AcDbLine
 10
111.0504910330623
 20
143.6551847135741
 30
0.0
 11
111.2026655676132
 21
143.807359248125
 31
0.0
  0
LINE
  5
512
330
1F
100
AcDbEntity
  8
0
100
AcDbLine
 10
105.2021156469738
 20
137.8442859868885
 30
0.0
 11
107.0751086948732
 21
139.7172790347879
 31
0.0
  0
LINE
  5
513
330
1F
100
AcDbEntity
  8
0
100
AcDbLine
 10
107.6485054844878
 20
140.2906758244025
 30
0.0
 11
108.9481491018283
 21
141.590319441743
 31
0.0
  0
LINE
  5
514
330
1F
100
AcDbEntity
  8
0
100
AcDbLine
 10
109.636196571637
 20
142.2783669115517
 30
0.0
 11
110.0566453255266
 21
142.6988156654413
 31
0.0
  0
LINE
  5
515
330
1F
100
AcDbEntity
  8
0
100
AcDbLine
 10
111.0504910330623
 20
143.692661372977
 30
0.0
 11
111.1651889082103
 21
143.807359248125
 31
0.0
  0
LINE
  5
516
330
1F
100
AcDbEntity
  8
0
100
AcDbLine
 10
105.1646389875709
 20
137.8442859868885
 30
0.0
 11
107.0751086948732
 21
139.7547556941908
 31
0.0
  0
LINE
  5
517
330
1F
100
AcDbEntity
  8
0
100
AcDbLine
 10
107.6110288250849
 20
140.2906758244025
 30
0.0
 11
108.9106724424254
 21
141.590319441743
 31
0.0
  0
LINE
  5
518
330
1F
100
AcDbEntity
  8
0
100
AcDbLine
 10
109.5987199122341
 20
142.2783669115517
 30
0.0
 11
110.0566453255266
 21
142.7362923248442
 31
0.0
  0
LINE
  5
519
330
1F
100
AcDbEntity
  8
0
100
AcDbLine
 10
111.0504910330623
 20
143.7301380323799
 30
0.0
 11
111.1277122488074
 21
143.807359248125
 31
0.0
  0
LINE
  5
51A
330
1F
100
AcDbEntity
  8
0
100
AcDbLine
 10
105.127162328168
 20
137.8442859868885
 30
0.0
 11
107.0751086948732
 21
139.7922323535937
 31
0.0
  0
LINE
  5
51B
330
1F
100
AcDbEntity
  8
0
100
AcDbLine
 10
107.573552165682
 20
140.2906758244025
 30
0.0
 11
108.8731957830225
 21
141.590319441743
 31
0.0
  0
LINE
  5
51C
330
1F
100
AcDbEntity
  8
0
100
AcDbLine
 10
109.5612432528312
 20
142.2783669115517
 30
0.0
 11
110.0566453255266
 21
142.7737689842471
 31
0.0
  0
LINE
  5
51D
330
1F
100
AcDbEntity
  8
0
100
AcDbLine
 10
111.0504910330623
 20
143.7676146917828
 30
0.0
 11
111.0902355894045
 21
143.807359248125
 31
0.0
  0
LINE
  5
51E
330
1F
100
AcDbEntity
  8
0
100
AcDbLine
 10
105.0896856687652
 20
137.8442859868885
 30
0.0
 11
107.0751086948732
 21
139.8297090129966
 31
0.0
  0
LINE
  5
51F
330
1F
100
AcDbEntity
  8
0
100
AcDbLine
 10
107.5360755062791
 20
140.2906758244025
 30
0.0
 11
108.8357191236196
 21
141.590319441743
 31
0.0
  0
LINE
  5
520
330
1F
100
AcDbEntity
  8
0
100
AcDbLine
 10
109.5237665934283
 20
142.2783669115517
 30
0.0
 11
110.0566453255266
 21
142.81124564365
 31
0.0
  0
LINE
  5
521
330
1F
100
AcDbEntity
  8
0
100
AcDbLine
 10
111.0504910330623
 20
143.8050913511857
 30
0.0
 11
111.0527589300016
 21
143.807359248125
 31
0.0
  0
LINE
  5
522
330
1F
100
AcDbEntity
  8
0
100
AcDbLine
 10
105.0522090093623
 20
137.8442859868885
 30
0.0
 11
107.0751086948732
 21
139.8671856723994
 31
0.0
  0
LINE
  5
523
330
1F
100
AcDbEntity
  8
0
100
AcDbLine
 10
107.4985988468763
 20
140.2906758244025
 30
0.0
 11
108.7982424642168
 21
141.590319441743
 31
0.0
  0
LINE
  5
524
330
1F
100
AcDbEntity
  8
0
100
AcDbLine
 10
109.4862899340255
 20
142.2783669115517
 30
0.0
 11
110.0566453255266
 21
142.8487223030529
 31
0.0
  0
LINE
  5
525
330
1F
100
AcDbEntity
  8
0
100
AcDbLine
 10
105.0147323499594
 20
137.8442859868885
 30
0.0
 11
107.0751086948732
 21
139.9046623318023
 31
0.0
  0
LINE
  5
526
330
1F
100
AcDbEntity
  8
0
100
AcDbLine
 10
107.4611221874734
 20
140.2906758244025
 30
0.0
 11
108.7607658048139
 21
141.590319441743
 31
0.0
  0
LINE
  5
527
330
1F
100
AcDbEntity
  8
0
100
AcDbLine
 10
109.4488132746226
 20
142.2783669115517
 30
0.0
 11
110.0566453255266
 21
142.8861989624557
 31
0.0
  0
LINE
  5
528
330
1F
100
AcDbEntity
  8
0
100
AcDbLine
 10
105.0109682533316
 20
137.8779985496636
 30
0.0
 11
107.0751086948732
 21
139.9421389912052
 31
0.0
  0
LINE
  5
529
330
1F
100
AcDbEntity
  8
0
100
AcDbLine
 10
107.4236455280705
 20
140.2906758244025
 30
0.0
 11
108.723289145411
 21
141.590319441743
 31
0.0
  0
LINE
  5
52A
330
1F
100
AcDbEntity
  8
0
100
AcDbLine
 10
109.4113366152197
 20
142.2783669115517
 30
0.0
 11
110.0566453255266
 21
142.9236756218586
 31
0.0
  0
LINE
  5
52B
330
1F
100
AcDbEntity
  8
0
100
AcDbLine
 10
105.0109682533316
 20
137.9154752090665
 30
0.0
 11
107.0751086948732
 21
139.9796156506081
 31
0.0
  0
LINE
  5
52C
330
1F
100
AcDbEntity
  8
0
100
AcDbLine
 10
107.3861688686676
 20
140.2906758244025
 30
0.0
 11
108.6858124860081
 21
141.590319441743
 31
0.0
  0
LINE
  5
52D
330
1F
100
AcDbEntity
  8
0
100
AcDbLine
 10
109.3738599558168
 20
142.2783669115517
 30
0.0
 11
110.0566453255266
 21
142.9611522812615
 31
0.0
  0
LINE
  5
52E
330
1F
100
AcDbEntity
  8
0
100
AcDbLine
 10
105.0109682533316
 20
137.9529518684694
 30
0.0
 11
107.0751086948732
 21
140.017092310011
 31
0.0
  0
LINE
  5
52F
330
1F
100
AcDbEntity
  8
0
100
AcDbLine
 10
107.3486922092647
 20
140.2906758244025
 30
0.0
 11
108.6483358266052
 21
141.590319441743
 31
0.0
  0
LINE
  5
530
330
1F
100
AcDbEntity
  8
0
100
AcDbLine
 10
109.3363832964139
 20
142.2783669115517
 30
0.0
 11
110.0566453255266
 21
142.9986289406644
 31
0.0
  0
LINE
  5
531
330
1F
100
AcDbEntity
  8
0
100
AcDbLine
 10
105.0109682533316
 20
137.9904285278723
 30
0.0
 11
107.0751086948732
 21
140.0545689694139
 31
0.0
  0
LINE
  5
532
330
1F
100
AcDbEntity
  8
0
100
AcDbLine
 10
107.3112155498618
 20
140.2906758244025
 30
0.0
 11
108.6108591672023
 21
141.590319441743
 31
0.0
  0
LINE
  5
533
330
1F
100
AcDbEntity
  8
0
100
AcDbLine
 10
109.298906637011
 20
142.2783669115517
 30
0.0
 11
110.0566453255266
 21
143.0361056000673
 31
0.0
  0
LINE
  5
534
330
1F
100
AcDbEntity
  8
0
100
AcDbLine
 10
105.0109682533316
 20
138.0279051872751
 30
0.0
 11
107.0751086948732
 21
140.0920456288167
 31
0.0
  0
LINE
  5
535
330
1F
100
AcDbEntity
  8
0
100
AcDbLine
 10
107.273738890459
 20
140.2906758244025
 30
0.0
 11
108.5733825077995
 21
141.590319441743
 31
0.0
  0
LINE
  5
536
330
1F
100
AcDbEntity
  8
0
100
AcDbLine
 10
109.2614299776081
 20
142.2783669115517
 30
0.0
 11
110.0566453255266
 21
143.0735822594702
 31
0.0
  0
LINE
  5
537
330
1F
100
AcDbEntity
  8
0
100
AcDbLine
 10
105.0109682533316
 20
138.065381846678
 30
0.0
 11
107.0751086948732
 21
140.1295222882196
 31
0.0
  0
LINE
  5
538
330
1F
100
AcDbEntity
  8
0
100
AcDbLine
 10
107.2362622310561
 20
140.2906758244025
 30
0.0
 11
108.5359058483966
 21
141.590319441743
 31
0.0
  0
LINE
  5
539
330
1F
100
AcDbEntity
  8
0
100
AcDbLine
 10
109.2239533182053
 20
142.2783669115517
 30
0.0
 11
110.0566453255266
 21
143.111058918873
 31
0.0
  0
LINE
  5
53A
330
1F
100
AcDbEntity
  8
0
100
AcDbLine
 10
105.0109682533316
 20
138.1028585060809
 30
0.0
 11
107.0751086948732
 21
140.1669989476225
 31
0.0
  0
LINE
  5
53B
330
1F
100
AcDbEntity
  8
0
100
AcDbLine
 10
107.1987855716532
 20
140.2906758244025
 30
0.0
 11
108.4984291889937
 21
141.590319441743
 31
0.0
  0
LINE
  5
53C
330
1F
100
AcDbEntity
  8
0
100
AcDbLine
 10
109.1864766588024
 20
142.2783669115517
 30
0.0
 11
110.0566453255266
 21
143.1485355782759
 31
0.0
  0
LINE
  5
53D
330
1F
100
AcDbEntity
  8
0
100
AcDbLine
 10
105.0109682533316
 20
138.1403351654838
 30
0.0
 11
107.0751086948732
 21
140.2044756070254
 31
0.0
  0
LINE
  5
53E
330
1F
100
AcDbEntity
  8
0
100
AcDbLine
 10
107.1613089122503
 20
140.2906758244025
 30
0.0
 11
108.4609525295908
 21
141.590319441743
 31
0.0
  0
LINE
  5
53F
330
1F
100
AcDbEntity
  8
0
100
AcDbLine
 10
109.1489999993995
 20
142.2783669115517
 30
0.0
 11
110.0566453255266
 21
143.1860122376788
 31
0.0
  0
LINE
  5
540
330
1F
100
AcDbEntity
  8
0
100
AcDbLine
 10
105.0109682533316
 20
138.1778118248867
 30
0.0
 11
107.0751086948732
 21
140.2419522664283
 31
0.0
  0
LINE
  5
541
330
1F
100
AcDbEntity
  8
0
100
AcDbLine
 10
107.1238322528474
 20
140.2906758244025
 30
0.0
 11
108.4234758701879
 21
141.590319441743
 31
0.0
  0
LINE
  5
542
330
1F
100
AcDbEntity
  8
0
100
AcDbLine
 10
109.1115233399966
 20
142.2783669115517
 30
0.0
 11
110.0566453255266
 21
143.2234888970817
 31
0.0
  0
LINE
  5
543
330
1F
100
AcDbEntity
  8
0
100
AcDbLine
 10
105.0109682533316
 20
138.2152884842896
 30
0.0
 11
107.0751086948732
 21
140.2794289258312
 31
0.0
  0
LINE
  5
544
330
1F
100
AcDbEntity
  8
0
100
AcDbLine
 10
107.0863555934446
 20
140.2906758244025
 30
0.0
 11
108.385999210785
 21
141.590319441743
 31
0.0
  0
LINE
  5
545
330
1F
100
AcDbEntity
  8
0
100
AcDbLine
 10
109.0740466805937
 20
142.2783669115517
 30
0.0
 11
110.0566453255266
 21
143.2609655564846
 31
0.0
  0
LINE
  5
546
330
1F
100
AcDbEntity
  8
0
100
AcDbLine
 10
105.0109682533316
 20
138.2527651436924
 30
0.0
 11
108.3485225513821
 21
141.590319441743
 31
0.0
  0
LINE
  5
547
330
1F
100
AcDbEntity
  8
0
100
AcDbLine
 10
109.0365700211908
 20
142.2783669115517
 30
0.0
 11
110.0566453255266
 21
143.2984422158875
 31
0.0
  0
LINE
  5
548
330
1F
100
AcDbEntity
  8
0
100
AcDbLine
 10
105.0109682533316
 20
138.2902418030953
 30
0.0
 11
108.3110458919792
 21
141.590319441743
 31
0.0
  0
LINE
  5
549
330
1F
100
AcDbEntity
  8
0
100
AcDbLine
 10
108.999093361788
 20
142.2783669115517
 30
0.0
 11
110.0566453255266
 21
143.3359188752903
 31
0.0
  0
LINE
  5
54A
330
1F
100
AcDbEntity
  8
0
100
AcDbLine
 10
105.0109682533316
 20
138.3277184624982
 30
0.0
 11
108.2735692325764
 21
141.590319441743
 31
0.0
  0
LINE
  5
54B
330
1F
100
AcDbEntity
  8
0
100
AcDbLine
 10
108.9616167023851
 20
142.2783669115517
 30
0.0
 11
110.0566453255266
 21
143.3733955346932
 31
0.0
  0
LINE
  5
54C
330
1F
100
AcDbEntity
  8
0
100
AcDbLine
 10
105.0109682533316
 20
138.3651951219011
 30
0.0
 11
108.2360925731735
 21
141.590319441743
 31
0.0
  0
LINE
  5
54D
330
1F
100
AcDbEntity
  8
0
100
AcDbLine
 10
108.9241400429822
 20
142.2783669115517
 30
0.0
 11
110.0566453255266
 21
143.4108721940961
 31
0.0
  0
LINE
  5
54E
330
1F
100
AcDbEntity
  8
0
100
AcDbLine
 10
105.0109682533316
 20
138.402671781304
 30
0.0
 11
108.1986159137706
 21
141.590319441743
 31
0.0
  0
LINE
  5
54F
330
1F
100
AcDbEntity
  8
0
100
AcDbLine
 10
108.8866633835793
 20
142.2783669115517
 30
0.0
 11
110.0566453255266
 21
143.448348853499
 31
0.0
  0
LINE
  5
550
330
1F
100
AcDbEntity
  8
0
100
AcDbLine
 10
105.0109682533316
 20
138.4401484407069
 30
0.0
 11
108.1611392543677
 21
141.590319441743
 31
0.0
  0
LINE
  5
551
330
1F
100
AcDbEntity
  8
0
100
AcDbLine
 10
108.8491867241764
 20
142.2783669115517
 30
0.0
 11
110.0566453255266
 21
143.4858255129019
 31
0.0
  0
LINE
  5
552
330
1F
100
AcDbEntity
  8
0
100
AcDbLine
 10
105.0109682533316
 20
138.4776251001097
 30
0.0
 11
108.1236625949648
 21
141.590319441743
 31
0.0
  0
LINE
  5
553
330
1F
100
AcDbEntity
  8
0
100
AcDbLine
 10
108.8117100647735
 20
142.2783669115517
 30
0.0
 11
110.0566453255266
 21
143.5233021723048
 31
0.0
  0
LINE
  5
554
330
1F
100
AcDbEntity
  8
0
100
AcDbLine
 10
105.0109682533316
 20
138.5151017595126
 30
0.0
 11
108.0861859355619
 21
141.590319441743
 31
0.0
  0
LINE
  5
555
330
1F
100
AcDbEntity
  8
0
100
AcDbLine
 10
108.7742334053707
 20
142.2783669115517
 30
0.0
 11
110.0566453255266
 21
143.5607788317076
 31
0.0
  0
LINE
  5
556
330
1F
100
AcDbEntity
  8
0
100
AcDbLine
 10
105.0109682533316
 20
138.5525784189155
 30
0.0
 11
108.0487092761591
 21
141.590319441743
 31
0.0
  0
LINE
  5
557
330
1F
100
AcDbEntity
  8
0
100
AcDbLine
 10
108.7367567459678
 20
142.2783669115517
 30
0.0
 11
110.0566453255266
 21
143.5982554911105
 31
0.0
  0
LINE
  5
558
330
1F
100
AcDbEntity
  8
0
100
AcDbLine
 10
105.0109682533316
 20
138.5900550783184
 30
0.0
 11
108.0112326167562
 21
141.590319441743
 31
0.0
  0
LINE
  5
559
330
1F
100
AcDbEntity
  8
0
100
AcDbLine
 10
108.6992800865649
 20
142.2783669115517
 30
0.0
 11
110.0566453255266
 21
143.6357321505134
 31
0.0
  0
LINE
  5
55A
330
1F
100
AcDbEntity
  8
0
100
AcDbLine
 10
105.0109682533316
 20
138.6275317377213
 30
0.0
 11
107.9737559573533
 21
141.590319441743
 31
0.0
  0
LINE
  5
55B
330
1F
100
AcDbEntity
  8
0
100
AcDbLine
 10
108.661803427162
 20
142.2783669115517
 30
0.0
 11
110.0566453255266
 21
143.6732088099163
 31
0.0
  0
LINE
  5
55C
330
1F
100
AcDbEntity
  8
0
100
AcDbLine
 10
105.0109682533316
 20
138.6650083971242
 30
0.0
 11
107.9362792979504
 21
141.590319441743
 31
0.0
  0
LINE
  5
55D
330
1F
100
AcDbEntity
  8
0
100
AcDbLine
 10
108.6243267677591
 20
142.2783669115517
 30
0.0
 11
110.0566453255266
 21
143.7106854693192
 31
0.0
  0
LINE
  5
55E
330
1F
100
AcDbEntity
  8
0
100
AcDbLine
 10
105.0109682533316
 20
138.7024850565271
 30
0.0
 11
107.8988026385475
 21
141.590319441743
 31
0.0
  0
LINE
  5
55F
330
1F
100
AcDbEntity
  8
0
100
AcDbLine
 10
108.5868501083562
 20
142.2783669115517
 30
0.0
 11
110.0566453255266
 21
143.748162128722
 31
0.0
  0
LINE
  5
560
330
1F
100
AcDbEntity
  8
0
100
AcDbLine
 10
105.0109682533316
 20
138.73996171593
 30
0.0
 11
107.8613259791447
 21
141.590319441743
 31
0.0
  0
LINE
  5
561
330
1F
100
AcDbEntity
  8
0
100
AcDbLine
 10
108.5493734489533
 20
142.2783669115517
 30
0.0
 11
110.0566453255266
 21
143.785638788125
 31
0.0
  0
LINE
  5
562
330
1F
100
AcDbEntity
  8
0
100
AcDbLine
 10
105.0109682533316
 20
138.7774383753328
 30
0.0
 11
107.8238493197418
 21
141.590319441743
 31
0.0
  0
LINE
  5
563
330
1F
100
AcDbEntity
  8
0
100
AcDbLine
 10
108.5118967895504
 20
142.2783669115517
 30
0.0
 11
110.0408891261238
 21
143.807359248125
 31
0.0
  0
LINE
  5
564
330
1F
100
AcDbEntity
  8
0
100
AcDbLine
 10
105.0109682533316
 20
138.8149150347357
 30
0.0
 11
107.7863726603389
 21
141.590319441743
 31
0.0
  0
LINE
  5
565
330
1F
100
AcDbEntity
  8
0
100
AcDbLine
 10
108.4744201301476
 20
142.2783669115517
 30
0.0
 11
110.0034124667209
 21
143.807359248125
 31
0.0
  0
LINE
  5
566
330
1F
100
AcDbEntity
  8
0
100
AcDbLine
 10
105.0109682533316
 20
138.8523916941386
 30
0.0
 11
107.748896000936
 21
141.590319441743
 31
0.0
  0
LINE
  5
567
330
1F
100
AcDbEntity
  8
0
100
AcDbLine
 10
108.4369434707447
 20
142.2783669115517
 30
0.0
 11
109.965935807318
 21
143.807359248125
 31
0.0
  0
LINE
  5
568
330
1F
100
AcDbEntity
  8
0
100
AcDbLine
 10
105.0109682533316
 20
138.8898683535415
 30
0.0
 11
107.7114193415331
 21
141.590319441743
 31
0.0
  0
LINE
  5
569
330
1F
100
AcDbEntity
  8
0
100
AcDbLine
 10
108.3994668113418
 20
142.2783669115517
 30
0.0
 11
109.9284591479151
 21
143.807359248125
 31
0.0
  0
LINE
  5
56A
330
1F
100
AcDbEntity
  8
0
100
AcDbLine
 10
105.0109682533316
 20
138.9273450129444
 30
0.0
 11
107.6739426821302
 21
141.590319441743
 31
0.0
  0
LINE
  5
56B
330
1F
100
AcDbEntity
  8
0
100
AcDbLine
 10
108.3619901519389
 20
142.2783669115517
 30
0.0
 11
109.8909824885122
 21
143.807359248125
 31
0.0
  0
LINE
  5
56C
330
1F
100
AcDbEntity
  8
0
100
AcDbLine
 10
105.0109682533316
 20
138.9648216723473
 30
0.0
 11
107.6364660227273
 21
141.590319441743
 31
0.0
  0
LINE
  5
56D
330
1F
100
AcDbEntity
  8
0
100
AcDbLine
 10
108.324513492536
 20
142.2783669115517
 30
0.0
 11
109.8535058291094
 21
143.807359248125
 31
0.0
  0
LINE
  5
56E
330
1F
100
AcDbEntity
  8
0
100
AcDbLine
 10
105.0109682533316
 20
139.0022983317502
 30
0.0
 11
107.5989893633245
 21
141.590319441743
 31
0.0
  0
LINE
  5
56F
330
1F
100
AcDbEntity
  8
0
100
AcDbLine
 10
108.2870368331332
 20
142.2783669115517
 30
0.0
 11
109.8160291697065
 21
143.807359248125
 31
0.0
  0
LINE
  5
570
330
1F
100
AcDbEntity
  8
0
100
AcDbLine
 10
105.0109682533316
 20
139.039774991153
 30
0.0
 11
107.5615127039216
 21
141.590319441743
 31
0.0
  0
LINE
  5
571
330
1F
100
AcDbEntity
  8
0
100
AcDbLine
 10
108.2495601737303
 20
142.2783669115517
 30
0.0
 11
109.7785525103036
 21
143.807359248125
 31
0.0
  0
LINE
  5
572
330
1F
100
AcDbEntity
  8
0
100
AcDbLine
 10
105.0109682533316
 20
139.0772516505559
 30
0.0
 11
107.5240360445187
 21
141.590319441743
 31
0.0
  0
LINE
  5
573
330
1F
100
AcDbEntity
  8
0
100
AcDbLine
 10
108.2120835143274
 20
142.2783669115517
 30
0.0
 11
109.7410758509007
 21
143.807359248125
 31
0.0
  0
LINE
  5
574
330
1F
100
AcDbEntity
  8
0
100
AcDbLine
 10
105.0109682533316
 20
139.1147283099588
 30
0.0
 11
107.4865593851158
 21
141.590319441743
 31
0.0
  0
LINE
  5
575
330
1F
100
AcDbEntity
  8
0
100
AcDbLine
 10
108.1746068549245
 20
142.2783669115517
 30
0.0
 11
109.7035991914978
 21
143.807359248125
 31
0.0
  0
LINE
  5
576
330
1F
100
AcDbEntity
  8
0
100
AcDbLine
 10
105.0109682533316
 20
139.1522049693617
 30
0.0
 11
107.4490827257129
 21
141.590319441743
 31
0.0
  0
LINE
  5
577
330
1F
100
AcDbEntity
  8
0
100
AcDbLine
 10
108.1371301955216
 20
142.2783669115517
 30
0.0
 11
109.6661225320949
 21
143.807359248125
 31
0.0
  0
LINE
  5
578
330
1F
100
AcDbEntity
  8
0
100
AcDbLine
 10
105.0109682533316
 20
139.1896816287646
 30
0.0
 11
107.41160606631
 21
141.590319441743
 31
0.0
  0
LINE
  5
579
330
1F
100
AcDbEntity
  8
0
100
AcDbLine
 10
108.0996535361188
 20
142.2783669115517
 30
0.0
 11
109.628645872692
 21
143.807359248125
 31
0.0
  0
LINE
  5
57A
330
1F
100
AcDbEntity
  8
0
100
AcDbLine
 10
105.0109682533316
 20
139.2271582881674
 30
0.0
 11
107.3741294069072
 21
141.590319441743
 31
0.0
  0
LINE
  5
57B
330
1F
100
AcDbEntity
  8
0
100
AcDbLine
 10
108.0621768767158
 20
142.2783669115517
 30
0.0
 11
109.5911692132892
 21
143.807359248125
 31
0.0
  0
LINE
  5
57C
330
1F
100
AcDbEntity
  8
0
100
AcDbLine
 10
105.0109682533316
 20
139.2646349475703
 30
0.0
 11
107.3366527475042
 21
141.590319441743
 31
0.0
  0
LINE
  5
57D
330
1F
100
AcDbEntity
  8
0
100
AcDbLine
 10
108.024700217313
 20
142.2783669115517
 30
0.0
 11
109.5536925538863
 21
143.807359248125
 31
0.0
  0
LINE
  5
57E
330
1F
100
AcDbEntity
  8
0
100
AcDbLine
 10
105.0109682533316
 20
139.3021116069732
 30
0.0
 11
107.2991760881014
 21
141.590319441743
 31
0.0
  0
LINE
  5
57F
330
1F
100
AcDbEntity
  8
0
100
AcDbLine
 10
107.9872235579101
 20
142.2783669115517
 30
0.0
 11
109.5162158944834
 21
143.807359248125
 31
0.0
  0
LINE
  5
580
330
1F
100
AcDbEntity
  8
0
100
AcDbLine
 10
105.0109682533316
 20
139.3395882663761
 30
0.0
 11
107.2616994286985
 21
141.590319441743
 31
0.0
  0
LINE
  5
581
330
1F
100
AcDbEntity
  8
0
100
AcDbLine
 10
107.9497468985072
 20
142.2783669115517
 30
0.0
 11
109.4787392350805
 21
143.807359248125
 31
0.0
  0
LINE
  5
582
330
1F
100
AcDbEntity
  8
0
100
AcDbLine
 10
105.0109682533316
 20
139.377064925779
 30
0.0
 11
107.2242227692956
 21
141.590319441743
 31
0.0
  0
LINE
  5
583
330
1F
100
AcDbEntity
  8
0
100
AcDbLine
 10
107.9122702391043
 20
142.2783669115517
 30
0.0
 11
109.4412625756776
 21
143.807359248125
 31
0.0
  0
LINE
  5
584
330
1F
100
AcDbEntity
  8
0
100
AcDbLine
 10
105.0109682533316
 20
139.4145415851819
 30
0.0
 11
107.1867461098927
 21
141.590319441743
 31
0.0
  0
LINE
  5
585
330
1F
100
AcDbEntity
  8
0
100
AcDbLine
 10
107.8747935797014
 20
142.2783669115517
 30
0.0
 11
109.4037859162747
 21
143.807359248125
 31
0.0
  0
LINE
  5
586
330
1F
100
AcDbEntity
  8
0
100
AcDbLine
 10
105.0109682533316
 20
139.4520182445847
 30
0.0
 11
107.1492694504899
 21
141.590319441743
 31
0.0
  0
LINE
  5
587
330
1F
100
AcDbEntity
  8
0
100
AcDbLine
 10
107.8373169202985
 20
142.2783669115517
 30
0.0
 11
109.3663092568719
 21
143.807359248125
 31
0.0
  0
LINE
  5
588
330
1F
100
AcDbEntity
  8
0
100
AcDbLine
 10
105.0109682533316
 20
139.4894949039876
 30
0.0
 11
107.1117927910869
 21
141.590319441743
 31
0.0
  0
LINE
  5
589
330
1F
100
AcDbEntity
  8
0
100
AcDbLine
 10
107.7998402608957
 20
142.2783669115517
 30
0.0
 11
109.328832597469
 21
143.807359248125
 31
0.0
  0
LINE
  5
58A
330
1F
100
AcDbEntity
  8
0
100
AcDbLine
 10
105.0109682533316
 20
139.5269715633905
 30
0.0
 11
107.0751086948732
 21
141.5911120049321
 31
0.0
  0
LINE
  5
58B
330
1F
100
AcDbEntity
  8
0
100
AcDbLine
 10
107.7623636014928
 20
142.2783669115517
 30
0.0
 11
109.2913559380661
 21
143.807359248125
 31
0.0
  0
LINE
  5
58C
330
1F
100
AcDbEntity
  8
0
100
AcDbLine
 10
105.0109682533316
 20
139.5644482227934
 30
0.0
 11
107.0751086948732
 21
141.628588664335
 31
0.0
  0
LINE
  5
58D
330
1F
100
AcDbEntity
  8
0
100
AcDbLine
 10
107.7248869420899
 20
142.2783669115517
 30
0.0
 11
109.2538792786632
 21
143.807359248125
 31
0.0
  0
LINE
  5
58E
330
1F
100
AcDbEntity
  8
0
100
AcDbLine
 10
105.0109682533316
 20
139.6019248821963
 30
0.0
 11
107.0751086948732
 21
141.6660653237379
 31
0.0
  0
LINE
  5
58F
330
1F
100
AcDbEntity
  8
0
100
AcDbLine
 10
107.687410282687
 20
142.2783669115517
 30
0.0
 11
109.2164026192603
 21
143.807359248125
 31
0.0
  0
LINE
  5
590
330
1F
100
AcDbEntity
  8
0
100
AcDbLine
 10
105.0109682533316
 20
139.6394015415992
 30
0.0
 11
107.0751086948732
 21
141.7035419831408
 31
0.0
  0
LINE
  5
591
330
1F
100
AcDbEntity
  8
0
100
AcDbLine
 10
107.6499336232841
 20
142.2783669115517
 30
0.0
 11
109.1789259598574
 21
143.807359248125
 31
0.0
  0
LINE
  5
592
330
1F
100
AcDbEntity
  8
0
100
AcDbLine
 10
105.0109682533316
 20
139.676878201002
 30
0.0
 11
107.0751086948732
 21
141.7410186425437
 31
0.0
  0
LINE
  5
593
330
1F
100
AcDbEntity
  8
0
100
AcDbLine
 10
107.6124569638812
 20
142.2783669115517
 30
0.0
 11
109.1414493004546
 21
143.807359248125
 31
0.0
  0
LINE
  5
594
330
1F
100
AcDbEntity
  8
0
100
AcDbLine
 10
105.0109682533316
 20
139.7143548604049
 30
0.0
 11
107.0751086948732
 21
141.7784953019465
 31
0.0
  0
LINE
  5
595
330
1F
100
AcDbEntity
  8
0
100
AcDbLine
 10
107.5749803044784
 20
142.2783669115517
 30
0.0
 11
109.1039726410517
 21
143.807359248125
 31
0.0
  0
LINE
  5
596
330
1F
100
AcDbEntity
  8
0
100
AcDbLine
 10
105.0109682533316
 20
139.7518315198078
 30
0.0
 11
107.0751086948732
 21
141.8159719613494
 31
0.0
  0
LINE
  5
597
330
1F
100
AcDbEntity
  8
0
100
AcDbLine
 10
107.5375036450755
 20
142.2783669115517
 30
0.0
 11
109.0664959816488
 21
143.807359248125
 31
0.0
  0
LINE
  5
598
330
1F
100
AcDbEntity
  8
0
100
AcDbLine
 10
105.0109682533316
 20
139.7893081792107
 30
0.0
 11
107.0751086948732
 21
141.8534486207523
 31
0.0
  0
LINE
  5
599
330
1F
100
AcDbEntity
  8
0
100
AcDbLine
 10
107.5000269856726
 20
142.2783669115517
 30
0.0
 11
109.0290193222459
 21
143.807359248125
 31
0.0
  0
LINE
  5
59A
330
1F
100
AcDbEntity
  8
0
100
AcDbLine
 10
105.0109682533316
 20
139.8267848386136
 30
0.0
 11
107.0751086948732
 21
141.8909252801552
 31
0.0
  0
LINE
  5
59B
330
1F
100
AcDbEntity
  8
0
100
AcDbLine
 10
107.4625503262697
 20
142.2783669115517
 30
0.0
 11
108.991542662843
 21
143.807359248125
 31
0.0
  0
LINE
  5
59C
330
1F
100
AcDbEntity
  8
0
100
AcDbLine
 10
105.0109682533316
 20
139.8642614980165
 30
0.0
 11
107.0751086948732
 21
141.9284019395581
 31
0.0
  0
LINE
  5
59D
330
1F
100
AcDbEntity
  8
0
100
AcDbLine
 10
107.4250736668668
 20
142.2783669115517
 30
0.0
 11
108.9540660034401
 21
143.807359248125
 31
0.0
  0
LINE
  5
59E
330
1F
100
AcDbEntity
  8
0
100
AcDbLine
 10
105.0109682533316
 20
139.9017381574193
 30
0.0
 11
107.0751086948732
 21
141.965878598961
 31
0.0
  0
LINE
  5
59F
330
1F
100
AcDbEntity
  8
0
100
AcDbLine
 10
107.3875970074639
 20
142.2783669115517
 30
0.0
 11
108.9165893440372
 21
143.807359248125
 31
0.0
  0
LINE
  5
5A0
330
1F
100
AcDbEntity
  8
0
100
AcDbLine
 10
105.0109682533316
 20
139.9392148168222
 30
0.0
 11
107.0751086948732
 21
142.0033552583638
 31
0.0
  0
LINE
  5
5A1
330
1F
100
AcDbEntity
  8
0
100
AcDbLine
 10
107.3501203480611
 20
142.2783669115517
 30
0.0
 11
108.8791126846344
 21
143.807359248125
 31
0.0
  0
LINE
  5
5A2
330
1F
100
AcDbEntity
  8
0
100
AcDbLine
 10
105.0109682533316
 20
139.9766914762251
 30
0.0
 11
107.0751086948732
 21
142.0408319177667
 31
0.0
  0
LINE
  5
5A3
330
1F
100
AcDbEntity
  8
0
100
AcDbLine
 10
107.3126436886582
 20
142.2783669115517
 30
0.0
 11
108.8416360252315
 21
143.807359248125
 31
0.0
  0
LINE
  5
5A4
330
1F
100
AcDbEntity
  8
0
100
AcDbLine
 10
105.0109682533316
 20
140.014168135628
 30
0.0
 11
107.0751086948732
 21
142.0783085771696
 31
0.0
  0
LINE
  5
5A5
330
1F
100
AcDbEntity
  8
0
100
AcDbLine
 10
107.2751670292553
 20
142.2783669115517
 30
0.0
 11
108.8041593658286
 21
143.807359248125
 31
0.0
  0
LINE
  5
5A6
330
1F
100
AcDbEntity
  8
0
100
AcDbLine
 10
105.0109682533316
 20
140.0516447950309
 30
0.0
 11
107.0751086948732
 21
142.1157852365725
 31
0.0
  0
LINE
  5
5A7
330
1F
100
AcDbEntity
  8
0
100
AcDbLine
 10
107.2376903698524
 20
142.2783669115517
 30
0.0
 11
108.7666827064257
 21
143.807359248125
 31
0.0
  0
LINE
  5
5A8
330
1F
100
AcDbEntity
  8
0
100
AcDbLine
 10
105.0109682533316
 20
140.0891214544338
 30
0.0
 11
107.0751086948732
 21
142.1532618959754
 31
0.0
  0
LINE
  5
5A9
330
1F
100
AcDbEntity
  8
0
100
AcDbLine
 10
107.2002137104495
 20
142.2783669115517
 30
0.0
 11
108.7292060470228
 21
143.807359248125
 31
0.0
  0
LINE
  5
5AA
330
1F
100
AcDbEntity
  8
0
100
AcDbLine
 10
105.0109682533316
 20
140.1265981138366
 30
0.0
 11
107.0751086948732
 21
142.1907385553783
 31
0.0
  0
LINE
  5
5AB
330
1F
100
AcDbEntity
  8
0
100
AcDbLine
 10
107.1627370510466
 20
142.2783669115517
 30
0.0
 11
108.6917293876199
 21
143.807359248125
 31
0.0
  0
LINE
  5
5AC
330
1F
100
AcDbEntity
  8
0
100
AcDbLine
 10
105.0109682533316
 20
140.1640747732395
 30
0.0
 11
107.0751086948732
 21
142.2282152147811
 31
0.0
  0
LINE
  5
5AD
330
1F
100
AcDbEntity
  8
0
100
AcDbLine
 10
107.1252603916438
 20
142.2783669115517
 30
0.0
 11
108.6542527282171
 21
143.807359248125
 31
0.0
  0
LINE
  5
5AE
330
1F
100
AcDbEntity
  8
0
100
AcDbLine
 10
105.0109682533316
 20
140.2015514326424
 30
0.0
 11
107.0751086948732
 21
142.265691874184
 31
0.0
  0
LINE
  5
5AF
330
1F
100
AcDbEntity
  8
0
100
AcDbLine
 10
107.0877837322409
 20
142.2783669115517
 30
0.0
 11
108.6167760688142
 21
143.807359248125
 31
0.0
  0
LINE
  5
5B0
330
1F
100
AcDbEntity
  8
0
100
AcDbLine
 10
105.0109682533316
 20
140.2390280920453
 30
0.0
 11
108.5792994094113
 21
143.807359248125
 31
0.0
  0
LINE
  5
5B1
330
1F
100
AcDbEntity
  8
0
100
AcDbLine
 10
105.0109682533316
 20
140.2765047514482
 30
0.0
 11
108.5418227500084
 21
143.807359248125
 31
0.0
  0
LINE
  5
5B2
330
1F
100
AcDbEntity
  8
0
100
AcDbLine
 10
105.0109682533316
 20
140.3139814108511
 30
0.0
 11
108.5043460906055
 21
143.807359248125
 31
0.0
  0
LINE
  5
5B3
330
1F
100
AcDbEntity
  8
0
100
AcDbLine
 10
105.0109682533316
 20
140.351458070254
 30
0.0
 11
108.4668694312026
 21
143.807359248125
 31
0.0
  0
LINE
  5
5B4
330
1F
100
AcDbEntity
  8
0
100
AcDbLine
 10
105.0109682533316
 20
140.3889347296569
 30
0.0
 11
108.4293927717998
 21
143.807359248125
 31
0.0
  0
LINE
  5
5B5
330
1F
100
AcDbEntity
  8
0
100
AcDbLine
 10
105.0109682533316
 20
140.4264113890598
 30
0.0
 11
108.3919161123969
 21
143.807359248125
 31
0.0
  0
LINE
  5
5B6
330
1F
100
AcDbEntity
  8
0
100
AcDbLine
 10
105.0109682533316
 20
140.4638880484626
 30
0.0
 11
108.354439452994
 21
143.807359248125
 31
0.0
  0
LINE
  5
5B7
330
1F
100
AcDbEntity
  8
0
100
AcDbLine
 10
105.0109682533316
 20
140.5013647078655
 30
0.0
 11
108.3169627935911
 21
143.807359248125
 31
0.0
  0
LINE
  5
5B8
330
1F
100
AcDbEntity
  8
0
100
AcDbLine
 10
105.0109682533316
 20
140.5388413672684
 30
0.0
 11
108.2794861341882
 21
143.807359248125
 31
0.0
  0
LINE
  5
5B9
330
1F
100
AcDbEntity
  8
0
100
AcDbLine
 10
105.0109682533316
 20
140.5763180266713
 30
0.0
 11
108.2420094747853
 21
143.807359248125
 31
0.0
  0
LINE
  5
5BA
330
1F
100
AcDbEntity
  8
0
100
AcDbLine
 10
105.0109682533316
 20
140.6137946860742
 30
0.0
 11
108.2045328153825
 21
143.807359248125
 31
0.0
  0
LINE
  5
5BB
330
1F
100
AcDbEntity
  8
0
100
AcDbLine
 10
105.0109682533316
 20
140.6512713454771
 30
0.0
 11
108.1670561559796
 21
143.807359248125
 31
0.0
  0
LINE
  5
5BC
330
1F
100
AcDbEntity
  8
0
100
AcDbLine
 10
105.0109682533316
 20
140.6887480048799
 30
0.0
 11
108.1295794965767
 21
143.807359248125
 31
0.0
  0
LINE
  5
5BD
330
1F
100
AcDbEntity
  8
0
100
AcDbLine
 10
105.0109682533316
 20
140.7262246642828
 30
0.0
 11
108.0921028371738
 21
143.807359248125
 31
0.0
  0
LINE
  5
5BE
330
1F
100
AcDbEntity
  8
0
100
AcDbLine
 10
105.0109682533316
 20
140.7637013236857
 30
0.0
 11
108.0546261777709
 21
143.807359248125
 31
0.0
  0
LINE
  5
5BF
330
1F
100
AcDbEntity
  8
0
100
AcDbLine
 10
105.0109682533316
 20
140.8011779830886
 30
0.0
 11
108.017149518368
 21
143.807359248125
 31
0.0
  0
LINE
  5
5C0
330
1F
100
AcDbEntity
  8
0
100
AcDbLine
 10
105.0109682533316
 20
140.8386546424914
 30
0.0
 11
107.9796728589651
 21
143.807359248125
 31
0.0
  0
LINE
  5
5C1
330
1F
100
AcDbEntity
  8
0
100
AcDbLine
 10
105.0109682533316
 20
140.8761313018943
 30
0.0
 11
107.9421961995623
 21
143.807359248125
 31
0.0
  0
LINE
  5
5C2
330
1F
100
AcDbEntity
  8
0
100
AcDbLine
 10
105.0109682533316
 20
140.9136079612972
 30
0.0
 11
107.9047195401594
 21
143.807359248125
 31
0.0
  0
LINE
  5
5C3
330
1F
100
AcDbEntity
  8
0
100
AcDbLine
 10
105.0109682533316
 20
140.9510846207001
 30
0.0
 11
107.8672428807565
 21
143.807359248125
 31
0.0
  0
LINE
  5
5C4
330
1F
100
AcDbEntity
  8
0
100
AcDbLine
 10
105.0109682533316
 20
140.988561280103
 30
0.0
 11
107.8297662213536
 21
143.807359248125
 31
0.0
  0
LINE
  5
5C5
330
1F
100
AcDbEntity
  8
0
100
AcDbLine
 10
105.0109682533316
 20
141.0260379395059
 30
0.0
 11
107.7922895619507
 21
143.807359248125
 31
0.0
  0
LINE
  5
5C6
330
1F
100
AcDbEntity
  8
0
100
AcDbLine
 10
105.0109682533316
 20
141.0635145989088
 30
0.0
 11
107.7548129025478
 21
143.807359248125
 31
0.0
  0
LINE
  5
5C7
330
1F
100
AcDbEntity
  8
0
100
AcDbLine
 10
105.0109682533316
 20
141.1009912583116
 30
0.0
 11
107.717336243145
 21
143.807359248125
 31
0.0
  0
LINE
  5
5C8
330
1F
100
AcDbEntity
  8
0
100
AcDbLine
 10
105.0109682533316
 20
141.1384679177145
 30
0.0
 11
107.6798595837421
 21
143.807359248125
 31
0.0
  0
LINE
  5
5C9
330
1F
100
AcDbEntity
  8
0
100
AcDbLine
 10
105.0109682533316
 20
141.1759445771174
 30
0.0
 11
107.6423829243392
 21
143.807359248125
 31
0.0
  0
LINE
  5
5CA
330
1F
100
AcDbEntity
  8
0
100
AcDbLine
 10
105.0109682533316
 20
141.2134212365203
 30
0.0
 11
107.6049062649363
 21
143.807359248125
 31
0.0
  0
LINE
  5
5CB
330
1F
100
AcDbEntity
  8
0
100
AcDbLine
 10
105.0109682533316
 20
141.2508978959232
 30
0.0
 11
107.5674296055334
 21
143.807359248125
 31
0.0
  0
LINE
  5
5CC
330
1F
100
AcDbEntity
  8
0
100
AcDbLine
 10
105.0109682533316
 20
141.2883745553261
 30
0.0
 11
107.5299529461305
 21
143.807359248125
 31
0.0
  0
LINE
  5
5CD
330
1F
100
AcDbEntity
  8
0
100
AcDbLine
 10
105.0109682533316
 20
141.3258512147289
 30
0.0
 11
107.4924762867277
 21
143.807359248125
 31
0.0
  0
LINE
  5
5CE
330
1F
100
AcDbEntity
  8
0
100
AcDbLine
 10
105.0109682533316
 20
141.3633278741318
 30
0.0
 11
107.4549996273248
 21
143.807359248125
 31
0.0
  0
LINE
  5
5CF
330
1F
100
AcDbEntity
  8
0
100
AcDbLine
 10
105.0109682533316
 20
141.4008045335347
 30
0.0
 11
107.4175229679219
 21
143.807359248125
 31
0.0
  0
LINE
  5
5D0
330
1F
100
AcDbEntity
  8
0
100
AcDbLine
 10
105.0109682533316
 20
141.4382811929376
 30
0.0
 11
107.380046308519
 21
143.807359248125
 31
0.0
  0
LINE
  5
5D1
330
1F
100
AcDbEntity
  8
0
100
AcDbLine
 10
105.0109682533316
 20
141.4757578523405
 30
0.0
 11
107.3425696491161
 21
143.807359248125
 31
0.0
  0
LINE
  5
5D2
330
1F
100
AcDbEntity
  8
0
100
AcDbLine
 10
105.0109682533316
 20
141.5132345117434
 30
0.0
 11
107.3050929897132
 21
143.807359248125
 31
0.0
  0
LINE
  5
5D3
330
1F
100
AcDbEntity
  8
0
100
AcDbLine
 10
105.0109682533316
 20
141.5507111711462
 30
0.0
 11
107.2676163303103
 21
143.807359248125
 31
0.0
  0
LINE
  5
5D4
330
1F
100
AcDbEntity
  8
0
100
AcDbLine
 10
105.0109682533316
 20
141.5881878305491
 30
0.0
 11
107.2301396709075
 21
143.807359248125
 31
0.0
  0
LINE
  5
5D5
330
1F
100
AcDbEntity
  8
0
100
AcDbLine
 10
105.0109682533316
 20
141.625664489952
 30
0.0
 11
107.1926630115046
 21
143.807359248125
 31
0.0
  0
LINE
  5
5D6
330
1F
100
AcDbEntity
  8
0
100
AcDbLine
 10
105.0109682533316
 20
141.6631411493549
 30
0.0
 11
107.1551863521017
 21
143.807359248125
 31
0.0
  0
LINE
  5
5D7
330
1F
100
AcDbEntity
  8
0
100
AcDbLine
 10
105.0109682533316
 20
141.7006178087578
 30
0.0
 11
107.1177096926988
 21
143.807359248125
 31
0.0
  0
LINE
  5
5D8
330
1F
100
AcDbEntity
  8
0
100
AcDbLine
 10
105.0109682533316
 20
141.7380944681607
 30
0.0
 11
107.0802330332959
 21
143.807359248125
 31
0.0
  0
LINE
  5
5D9
330
1F
100
AcDbEntity
  8
0
100
AcDbLine
 10
105.0109682533316
 20
141.7755711275636
 30
0.0
 11
107.042756373893
 21
143.807359248125
 31
0.0
  0
LINE
  5
5DA
330
1F
100
AcDbEntity
  8
0
100
AcDbLine
 10
105.0109682533316
 20
141.8130477869665
 30
0.0
 11
107.0052797144902
 21
143.807359248125
 31
0.0
  0
LINE
  5
5DB
330
1F
100
AcDbEntity
  8
0
100
AcDbLine
 10
101.0047297938508
 20
137.8442859868885
 30
0.0
 11
101.0355854232593
 21
137.875141616297
 31
0.0
  0
LINE
  5
5DC
330
1F
100
AcDbEntity
  8
0
100
AcDbLine
 10
105.0109682533316
 20
141.8505244463693
 30
0.0
 11
106.9678030550873
 21
143.807359248125
 31
0.0
  0
LINE
  5
5DD
330
1F
100
AcDbEntity
  8
0
100
AcDbLine
 10
100.9672531344479
 20
137.8442859868885
 30
0.0
 11
101.0355854232593
 21
137.9126182756999
 31
0.0
  0
LINE
  5
5DE
330
1F
100
AcDbEntity
  8
0
100
AcDbLine
 10
105.0109682533316
 20
141.8880011057722
 30
0.0
 11
106.9303263956844
 21
143.807359248125
 31
0.0
  0
LINE
  5
5DF
330
1F
100
AcDbEntity
  8
0
100
AcDbLine
 10
100.929776475045
 20
137.8442859868885
 30
0.0
 11
101.0355854232593
 21
137.9500949351028
 31
0.0
  0
LINE
  5
5E0
330
1F
100
AcDbEntity
  8
0
100
AcDbLine
 10
105.0109682533316
 20
141.9254777651751
 30
0.0
 11
106.8928497362815
 21
143.807359248125
 31
0.0
  0
LINE
  5
5E1
330
1F
100
AcDbEntity
  8
0
100
AcDbLine
 10
100.8922998156421
 20
137.8442859868885
 30
0.0
 11
101.0355854232593
 21
137.9875715945057
 31
0.0
  0
LINE
  5
5E2
330
1F
100
AcDbEntity
  8
0
100
AcDbLine
 10
105.0109682533316
 20
141.962954424578
 30
0.0
 11
106.8553730768786
 21
143.807359248125
 31
0.0
  0
LINE
  5
5E3
330
1F
100
AcDbEntity
  8
0
100
AcDbLine
 10
100.8548231562392
 20
137.8442859868885
 30
0.0
 11
101.0355854232593
 21
138.0250482539086
 31
0.0
  0
LINE
  5
5E4
330
1F
100
AcDbEntity
  8
0
100
AcDbLine
 10
103.5200459673974
 20
140.5095087980466
 30
0.0
 11
103.7799521861764
 21
140.7694150168257
 31
0.0
  0
LINE
  5
5E5
330
1F
100
AcDbEntity
  8
0
100
AcDbLine
 10
105.0109682533316
 20
142.0004310839809
 30
0.0
 11
106.8178964174758
 21
143.807359248125
 31
0.0
  0
LINE
  5
5E6
330
1F
100
AcDbEntity
  8
0
100
AcDbLine
 10
100.8173464968364
 20
137.8442859868885
 30
0.0
 11
101.0355854232593
 21
138.0625249133114
 31
0.0
  0
LINE
  5
5E7
330
1F
100
AcDbEntity
  8
0
100
AcDbLine
 10
103.3894818669964
 20
140.4164213570486
 30
0.0
 11
103.8800571786044
 21
140.9069966686566
 31
0.0
  0
LINE
  5
5E8
330
1F
100
AcDbEntity
  8
0
100
AcDbLine
 10
105.0109682533316
 20
142.0379077433838
 30
0.0
 11
106.7804197580728
 21
143.807359248125
 31
0.0
  0
LINE
  5
5E9
330
1F
100
AcDbEntity
  8
0
100
AcDbLine
 10
100.7798698374335
 20
137.8442859868885
 30
0.0
 11
101.0355854232593
 21
138.1000015727143
 31
0.0
  0
LINE
  5
5EA
330
1F
100
AcDbEntity
  8
0
100
AcDbLine
 10
103.2970787078328
 20
140.3614948572878
 30
0.0
 11
103.9382366061443
 21
141.0026527555993
 31
0.0
  0
LINE
  5
5EB
330
1F
100
AcDbEntity
  8
0
100
AcDbLine
 10
105.0109682533316
 20
142.0753844027867
 30
0.0
 11
106.74294309867
 21
143.807359248125
 31
0.0
  0
LINE
  5
5EC
330
1F
100
AcDbEntity
  8
0
100
AcDbLine
 10
100.7423931780306
 20
137.8442859868885
 30
0.0
 11
101.0355854232593
 21
138.1374782321172
 31
0.0
  0
LINE
  5
5ED
330
1F
100
AcDbEntity
  8
0
100
AcDbLine
 10
103.2184470797005
 20
140.3203398885584
 30
0.0
 11
103.9804649965432
 21
141.0823578054012
 31
0.0
  0
LINE
  5
5EE
330
1F
100
AcDbEntity
  8
0
100
AcDbLine
 10
105.0109682533316
 20
142.1128610621895
 30
0.0
 11
106.7054664392671
 21
143.807359248125
 31
0.0
  0
LINE
  5
5EF
330
1F
100
AcDbEntity
  8
0
100
AcDbLine
 10
100.7049165186277
 20
137.8442859868885
 30
0.0
 11
101.0355854232593
 21
138.1749548915201
 31
0.0
  0
LINE
  5
5F0
330
1F
100
AcDbEntity
  8
0
100
AcDbLine
 10
103.1475698607824
 20
140.2869393290432
 30
0.0
 11
104.0132333765874
 21
141.1526028448482
 31
0.0
  0
LINE
  5
5F1
330
1F
100
AcDbEntity
  8
0
100
AcDbLine
 10
105.0109682533316
 20
142.1503377215924
 30
0.0
 11
106.6679897798642
 21
143.807359248125
 31
0.0
  0
LINE
  5
5F2
330
1F
100
AcDbEntity
  8
0
100
AcDbLine
 10
100.6674398592248
 20
137.8442859868885
 30
0.0
 11
101.0355854232593
 21
138.212431550923
 31
0.0
  0
LINE
  5
5F3
330
1F
100
AcDbEntity
  8
0
100
AcDbLine
 10
103.0827517453486
 20
140.2595978730123
 30
0.0
 11
104.0389637375993
 21
141.215809865263
 31
0.0
  0
LINE
  5
5F4
330
1F
100
AcDbEntity
  8
0
100
AcDbLine
 10
105.0109682533316
 20
142.1878143809953
 30
0.0
 11
106.6305131204613
 21
143.807359248125
 31
0.0
  0
LINE
  5
5F5
330
1F
100
AcDbEntity
  8
0
100
AcDbLine
 10
100.6299631998219
 20
137.8442859868885
 30
0.0
 11
101.0355854232593
 21
138.2499082103259
 31
0.0
  0
LINE
  5
5F6
330
1F
100
AcDbEntity
  8
0
100
AcDbLine
 10
103.0220536268641
 20
140.2363764139307
 30
0.0
 11
104.0602993861436
 21
141.2746221732101
 31
0.0
  0
LINE
  5
5F7
330
1F
100
AcDbEntity
  8
0
100
AcDbLine
 10
105.0109682533316
 20
142.2252910403982
 30
0.0
 11
106.5930364610584
 21
143.807359248125
 31
0.0
  0
LINE
  5
5F8
330
1F
100
AcDbEntity
  8
0
100
AcDbLine
 10
100.592486540419
 20
137.8442859868885
 30
0.0
 11
101.0355854232593
 21
138.2873848697288
 31
0.0
  0
LINE
  5
5F9
330
1F
100
AcDbEntity
  8
0
100
AcDbLine
 10
102.9643941935719
 20
140.2161936400414
 30
0.0
 11
104.0780563587215
 21
141.3298558051909
 31
0.0
  0
LINE
  5
5FA
330
1F
100
AcDbEntity
  8
0
100
AcDbLine
 10
105.0109682533316
 20
142.262767699801
 30
0.0
 11
106.5555598016556
 21
143.807359248125
 31
0.0
  0
LINE
  5
5FB
330
1F
100
AcDbEntity
  8
0
100
AcDbLine
 10
100.5550098810162
 20
137.8442859868885
 30
0.0
 11
101.0355854232593
 21
138.3248615291316
 31
0.0
  0
LINE
  5
5FC
330
1F
100
AcDbEntity
  8
0
100
AcDbLine
 10
102.9091018676596
 20
140.198377973532
 30
0.0
 11
104.0931784331916
 21
141.382454539064
 31
0.0
  0
LINE
  5
5FD
330
1F
100
AcDbEntity
  8
0
100
AcDbLine
 10
105.0109682533316
 20
142.3002443592039
 30
0.0
 11
106.5180831422527
 21
143.807359248125
 31
0.0
  0
LINE
  5
5FE
330
1F
100
AcDbEntity
  8
0
100
AcDbLine
 10
100.5175332216133
 20
137.8442859868885
 30
0.0
 11
101.0355854232593
 21
138.3623381885345
 31
0.0
  0
LINE
  5
5FF
330
1F
100
AcDbEntity
  8
0
100
AcDbLine
 10
102.8557294349559
 20
140.1824822002311
 30
0.0
 11
104.1063454221021
 21
141.4330981873773
 31
0.0
  0
LINE
  5
600
330
1F
100
AcDbEntity
  8
0
100
AcDbLine
 10
105.0109682533316
 20
142.3377210186068
 30
0.0
 11
106.4806064828498
 21
143.807359248125
 31
0.0
  0
LINE
  5
601
330
1F
100
AcDbEntity
  8
0
100
AcDbLine
 10
100.4800565622104
 20
137.8442859868885
 30
0.0
 11
101.0355854232593
 21
138.3998148479374
 31
0.0
  0
LINE
  5
602
330
1F
100
AcDbEntity
  8
0
100
AcDbLine
 10
102.8039401721392
 20
140.1681695968174
 30
0.0
 11
104.1178360621892
 21
141.4820654868673
 31
0.0
  0
LINE
  5
603
330
1F
100
AcDbEntity
  8
0
100
AcDbLine
 10
105.0109682533316
 20
142.3751976780097
 30
0.0
 11
106.4431298234469
 21
143.807359248125
 31
0.0
  0
LINE
  5
604
330
1F
100
AcDbEntity
  8
0
100
AcDbLine
 10
100.4425799028075
 20
137.8442859868885
 30
0.0
 11
101.0355854232593
 21
138.4372915073403
 31
0.0
  0
LINE
  5
605
330
1F
100
AcDbEntity
  8
0
100
AcDbLine
 10
102.7535786840174
 20
140.1552847680984
 30
0.0
 11
104.1278832671387
 21
141.5295893512197
 31
0.0
  0
LINE
  5
606
330
1F
100
AcDbEntity
  8
0
100
AcDbLine
 10
105.0109682533316
 20
142.4126743374126
 30
0.0
 11
106.405653164044
 21
143.807359248125
 31
0.0
  0
LINE
  5
607
330
1F
100
AcDbEntity
  8
0
100
AcDbLine
 10
100.4051032434046
 20
137.8442859868885
 30
0.0
 11
101.0355854232593
 21
138.4747681667432
 31
0.0
  0
LINE
  5
608
330
1F
100
AcDbEntity
  8
0
100
AcDbLine
 10
102.7045051310756
 20
140.1436878745595
 30
0.0
 11
104.1367274653013
 21
141.5759102087852
 31
0.0
  0
LINE
  5
609
330
1F
100
AcDbEntity
  8
0
100
AcDbLine
 10
105.0109682533316
 20
142.4501509968155
 30
0.0
 11
106.3681765046411
 21
143.807359248125
 31
0.0
  0
LINE
  5
60A
330
1F
100
AcDbEntity
  8
0
100
AcDbLine
 10
100.3676265840017
 20
137.8442859868885
 30
0.0
 11
101.0355854232593
 21
138.5122448261461
 31
0.0
  0
LINE
  5
60B
330
1F
100
AcDbEntity
  8
0
100
AcDbLine
 10
102.6566012204875
 20
140.1332606233742
 30
0.0
 11
104.144363106072
 21
141.6210225089587
 31
0.0
  0
LINE
  5
60C
330
1F
100
AcDbEntity
  8
0
100
AcDbLine
 10
105.0109682533316
 20
142.4876276562184
 30
0.0
 11
106.3306998452382
 21
143.807359248125
 31
0.0
  0
LINE
  5
60D
330
1F
100
AcDbEntity
  8
0
100
AcDbLine
 10
100.3301499245989
 20
137.8442859868885
 30
0.0
 11
101.0355854232593
 21
138.5497214855489
 31
0.0
  0
LINE
  5
60E
330
1F
100
AcDbEntity
  8
0
100
AcDbLine
 10
102.6099402043088
 20
140.1240762665985
 30
0.0
 11
104.1508669138593
 21
141.6650029761489
 31
0.0
  0
LINE
  5
60F
330
1F
100
AcDbEntity
  8
0
100
AcDbLine
 10
105.0109682533316
 20
142.5251043156212
 30
0.0
 11
106.2932231858354
 21
143.807359248125
 31
0.0
  0
LINE
  5
610
330
1F
100
AcDbEntity
  8
0
100
AcDbLine
 10
100.292673265196
 20
137.8442859868885
 30
0.0
 11
101.0355854232593
 21
138.5871981449518
 31
0.0
  0
LINE
  5
611
330
1F
100
AcDbEntity
  8
0
100
AcDbLine
 10
102.5642770552064
 20
140.1158897768989
 30
0.0
 11
104.1561543392966
 21
141.7077670609892
 31
0.0
  0
LINE
  5
612
330
1F
100
AcDbEntity
  8
0
100
AcDbLine
 10
105.0109682533316
 20
142.5625809750241
 30
0.0
 11
106.2557465264325
 21
143.807359248125
 31
0.0
  0
LINE
  5
613
330
1F
100
AcDbEntity
  8
0
100
AcDbLine
 10
100.2551966057931
 20
137.8442859868885
 30
0.0
 11
101.0355854232593
 21
138.6246748043547
 31
0.0
  0
LINE
  5
614
330
1F
100
AcDbEntity
  8
0
100
AcDbLine
 10
102.5193597656911
 20
140.1084491467865
 30
0.0
 11
104.1603782482139
 21
141.7494676293093
 31
0.0
  0
LINE
  5
615
330
1F
100
AcDbEntity
  8
0
100
AcDbLine
 10
105.0109682533316
 20
142.600057634427
 30
0.0
 11
106.2182698670296
 21
143.807359248125
 31
0.0
  0
LINE
  5
616
330
1F
100
AcDbEntity
  8
0
100
AcDbLine
 10
100.2177199463902
 20
137.8442859868885
 30
0.0
 11
101.0355854232593
 21
138.6621514637576
 31
0.0
  0
LINE
  5
617
330
1F
100
AcDbEntity
  8
0
100
AcDbLine
 10
102.4751057194475
 20
140.1016717599458
 30
0.0
 11
104.1635561994338
 21
141.7901222399321
 31
0.0
  0
LINE
  5
618
330
1F
100
AcDbEntity
  8
0
100
AcDbLine
 10
105.0109682533316
 20
142.6375342938299
 30
0.0
 11
106.1807932076267
 21
143.807359248125
 31
0.0
  0
LINE
  5
619
330
1F
100
AcDbEntity
  8
0
100
AcDbLine
 10
100.1802432869873
 20
137.8442859868885
 30
0.0
 11
101.0355854232593
 21
138.6996281231605
 31
0.0
  0
LINE
  5
61A
330
1F
100
AcDbEntity
  8
0
100
AcDbLine
 10
102.4317680323586
 20
140.0958107322598
 30
0.0
 11
104.1658501583502
 21
141.8298928582514
 31
0.0
  0
LINE
  5
61B
330
1F
100
AcDbEntity
  8
0
100
AcDbLine
 10
105.0109682533316
 20
142.6750109532328
 30
0.0
 11
106.1433165482238
 21
143.807359248125
 31
0.0
  0
LINE
  5
61C
330
1F
100
AcDbEntity
  8
0
100
AcDbLine
 10
100.1427666275844
 20
137.8442859868885
 30
0.0
 11
101.0355854232593
 21
138.7371047825634
 31
0.0
  0
LINE
  5
61D
330
1F
100
AcDbEntity
  8
0
100
AcDbLine
 10
102.3888822550468
 20
140.0904016143509
 30
0.0
 11
104.1674691208923
 21
141.8689884801964
 31
0.0
  0
LINE
  5
61E
330
1F
100
AcDbEntity
  8
0
100
AcDbLine
 10
105.0109682533316
 20
142.7124876126357
 30
0.0
 11
106.1058398888209
 21
143.807359248125
 31
0.0
  0
LINE
  5
61F
330
1F
100
AcDbEntity
  8
0
100
AcDbLine
 10
100.1052899681815
 20
137.8442859868885
 30
0.0
 11
101.0355854232593
 21
138.7745814419663
 31
0.0
  0
LINE
  5
620
330
1F
100
AcDbEntity
  8
0
100
AcDbLine
 10
102.3466127160498
 20
140.0856087347568
 30
0.0
 11
104.1685986004059
 21
141.9075946191129
 31
0.0
  0
LINE
  5
621
330
1F
100
AcDbEntity
  8
0
100
AcDbLine
 10
105.0109682533316
 20
142.7499642720385
 30
0.0
 11
106.0683632294181
 21
143.807359248125
 31
0.0
  0
LINE
  5
622
330
1F
100
AcDbEntity
  8
0
100
AcDbLine
 10
100.0678133087787
 20
137.8442859868885
 30
0.0
 11
101.0355854232593
 21
138.8120581013691
 31
0.0
  0
LINE
  5
623
330
1F
100
AcDbEntity
  8
0
100
AcDbLine
 10
102.3048817945178
 20
140.0813544726277
 30
0.0
 11
104.1694339438458
 21
141.9459066219557
 31
0.0
  0
LINE
  5
624
330
1F
100
AcDbEntity
  8
0
100
AcDbLine
 10
105.0109682533316
 20
142.7874409314414
 30
0.0
 11
106.0308865700152
 21
143.807359248125
 31
0.0
  0
LINE
  5
625
330
1F
100
AcDbEntity
  8
0
100
AcDbLine
 10
100.0303366493758
 20
137.8442859868885
 30
0.0
 11
101.0355854232593
 21
138.849534760772
 31
0.0
  0
LINE
  5
626
330
1F
100
AcDbEntity
  8
0
100
AcDbLine
 10
102.2636660560382
 20
140.077615393551
 30
0.0
 11
104.1698605192084
 21
141.9838098567212
 31
0.0
  0
LINE
  5
627
330
1F
100
AcDbEntity
  8
0
100
AcDbLine
 10
105.0109682533316
 20
142.8249175908443
 30
0.0
 11
105.9934099106123
 21
143.807359248125
 31
0.0
  0
LINE
  5
628
330
1F
100
AcDbEntity
  8
0
100
AcDbLine
 10
99.99285998997291
 20
137.8442859868885
 30
0.0
 11
101.0355854232593
 21
138.8870114201749
 31
0.0
  0
LINE
  5
629
330
1F
100
AcDbEntity
  8
0
100
AcDbLine
 10
102.2229437005816
 20
140.0743696974972
 30
0.0
 11
104.1689422568239
 21
142.0203682537395
 31
0.0
  0
LINE
  5
62A
330
1F
100
AcDbEntity
  8
0
100
AcDbLine
 10
105.0109682533316
 20
142.8623942502472
 30
0.0
 11
105.9559332512094
 21
143.807359248125
 31
0.0
  0
LINE
  5
62B
330
1F
100
AcDbEntity
  8
0
100
AcDbLine
 10
99.95538333057003
 20
137.8442859868885
 30
0.0
 11
101.0355854232593
 21
138.9244880795778
 31
0.0
  0
LINE
  5
62C
330
1F
100
AcDbEntity
  8
0
100
AcDbLine
 10
102.1826944159692
 20
140.0715970722877
 30
0.0
 11
104.1678924491513
 21
142.0567951054698
 31
0.0
  0
LINE
  5
62D
330
1F
100
AcDbEntity
  8
0
100
AcDbLine
 10
105.0109682533316
 20
142.8998709096501
 30
0.0
 11
105.9184565918065
 21
143.807359248125
 31
0.0
  0
LINE
  5
62E
330
1F
100
AcDbEntity
  8
0
100
AcDbLine
 10
99.91790667116715
 20
137.8442859868885
 30
0.0
 11
101.0355854232593
 21
138.9619647389807
 31
0.0
  0
LINE
  5
62F
330
1F
100
AcDbEntity
  8
0
100
AcDbLine
 10
102.1428997303594
 20
140.0692790460807
 30
0.0
 11
104.166594431878
 21
142.0929737475994
 31
0.0
  0
LINE
  5
630
330
1F
100
AcDbEntity
  8
0
100
AcDbLine
 10
105.0109682533316
 20
142.937347569053
 30
0.0
 11
105.8809799324036
 21
143.807359248125
 31
0.0
  0
LINE
  5
631
330
1F
100
AcDbEntity
  8
0
100
AcDbLine
 10
99.88043001176426
 20
137.8442859868885
 30
0.0
 11
101.0355854232593
 21
138.9994413983836
 31
0.0
  0
LINE
  5
632
330
1F
100
AcDbEntity
  8
0
100
AcDbLine
 10
102.1035052079353
 20
140.0673611830595
 30
0.0
 11
104.1649637571658
 21
142.12881973229
 31
0.0
  0
LINE
  5
633
330
1F
100
AcDbEntity
  8
0
100
AcDbLine
 10
105.0109682533316
 20
142.9748242284558
 30
0.0
 11
105.8435032730007
 21
143.807359248125
 31
0.0
  0
LINE
  5
634
330
1F
100
AcDbEntity
  8
0
100
AcDbLine
 10
99.84295335236138
 20
137.8442859868885
 30
0.0
 11
101.0355854232593
 21
139.0369180577864
 31
0.0
  0
LINE
  5
635
330
1F
100
AcDbEntity
  8
0
100
AcDbLine
 10
102.0645355765314
 20
140.0658682110586
 30
0.0
 11
104.1629197270554
 21
142.1642523615826
 31
0.0
  0
LINE
  5
636
330
1F
100
AcDbEntity
  8
0
100
AcDbLine
 10
105.0109682533316
 20
143.0123008878587
 30
0.0
 11
105.8060266135979
 21
143.807359248125
 31
0.0
  0
LINE
  5
637
330
1F
100
AcDbEntity
  8
0
100
AcDbLine
 10
99.80547669295848
 20
137.8442859868885
 30
0.0
 11
101.0355854232593
 21
139.0743947171893
 31
0.0
  0
LINE
  5
638
330
1F
100
AcDbEntity
  8
0
100
AcDbLine
 10
102.0258386096894
 20
140.0646479036195
 30
0.0
 11
104.160407961753
 21
142.199217255683
 31
0.0
  0
LINE
  5
639
330
1F
100
AcDbEntity
  8
0
100
AcDbLine
 10
105.0109682533316
 20
143.0497775472616
 30
0.0
 11
105.768549954195
 21
143.807359248125
 31
0.0
  0
LINE
  5
63A
330
1F
100
AcDbEntity
  8
0
100
AcDbLine
 10
99.7680000335556
 20
137.8442859868885
 30
0.0
 11
101.0355854232593
 21
139.1118713765922
 31
0.0
  0
LINE
  5
63B
330
1F
100
AcDbEntity
  8
0
100
AcDbLine
 10
101.9873533668052
 20
140.0636393201381
 30
0.0
 11
104.1573758142452
 21
142.2336617675781
 31
0.0
  0
LINE
  5
63C
330
1F
100
AcDbEntity
  8
0
100
AcDbLine
 10
105.0109682533316
 20
143.0872542066645
 30
0.0
 11
105.7310732947921
 21
143.807359248125
 31
0.0
  0
LINE
  5
63D
330
1F
100
AcDbEntity
  8
0
100
AcDbLine
 10
99.73052337415271
 20
137.8442859868885
 30
0.0
 11
101.0355854232593
 21
139.1493480359951
 31
0.0
  0
LINE
  5
63E
330
1F
100
AcDbEntity
  8
0
100
AcDbLine
 10
101.9490303664986
 20
140.0627929792344
 30
0.0
 11
104.153833256634
 21
142.2675958693698
 31
0.0
  0
LINE
  5
63F
330
1F
100
AcDbEntity
  8
0
100
AcDbLine
 10
105.0109682533316
 20
143.1247308660674
 30
0.0
 11
105.6935966353892
 21
143.807359248125
 31
0.0
  0
LINE
  5
640
330
1F
100
AcDbEntity
  8
0
100
AcDbLine
 10
99.69304671474983
 20
137.8442859868885
 30
0.0
 11
101.0355854232593
 21
139.186824695398
 31
0.0
  0
LINE
  5
641
330
1F
100
AcDbEntity
  8
0
100
AcDbLine
 10
101.9108233484697
 20
140.0620626206084
 30
0.0
 11
104.1497774326574
 21
142.301016704796
 31
0.0
  0
LINE
  5
642
330
1F
100
AcDbEntity
  8
0
100
AcDbLine
 10
105.0109682533316
 20
143.1622075254703
 30
0.0
 11
105.6561199759863
 21
143.807359248125
 31
0.0
  0
LINE
  5
643
330
1F
100
AcDbEntity
  8
0
100
AcDbLine
 10
99.65557005534694
 20
137.8442859868885
 30
0.0
 11
101.0355854232593
 21
139.2243013548009
 31
0.0
  0
LINE
  5
644
330
1F
100
AcDbEntity
  8
0
100
AcDbLine
 10
101.8726879107448
 20
140.0614038422864
 30
0.0
 11
104.145134603444
 21
142.3338505349856
 31
0.0
  0
LINE
  5
645
330
1F
100
AcDbEntity
  8
0
100
AcDbLine
 10
105.0109682533316
 20
143.1996841848731
 30
0.0
 11
105.6186433165834
 21
143.807359248125
 31
0.0
  0
LINE
  5
646
330
1F
100
AcDbEntity
  8
0
100
AcDbLine
 10
99.61809339594406
 20
137.8442859868885
 30
0.0
 11
101.0355854232593
 21
139.2617780142037
 31
0.0
  0
LINE
  5
647
330
1F
100
AcDbEntity
  8
0
100
AcDbLine
 10
101.8351332023258
 20
140.0613257932703
 30
0.0
 11
104.1400059251395
 21
142.366198516084
 31
0.0
  0
LINE
  5
648
330
1F
100
AcDbEntity
  8
0
100
AcDbLine
 10
105.0109682533316
 20
143.237160844276
 30
0.0
 11
105.5811666571806
 21
143.807359248125
 31
0.0
  0
LINE
  5
649
330
1F
100
AcDbEntity
  8
0
100
AcDbLine
 10
99.58061673654117
 20
137.8442859868885
 30
0.0
 11
101.0355854232593
 21
139.2992546736066
 31
0.0
  0
LINE
  5
64A
330
1F
100
AcDbEntity
  8
0
100
AcDbLine
 10
101.797656542923
 20
140.0613257932703
 30
0.0
 11
104.1343720307184
 21
142.3980412810657
 31
0.0
  0
LINE
  5
64B
330
1F
100
AcDbEntity
  8
0
100
AcDbLine
 10
105.0109682533316
 20
143.2746375036789
 30
0.0
 11
105.5436899977777
 21
143.807359248125
 31
0.0
  0
LINE
  5
64C
330
1F
100
AcDbEntity
  8
0
100
AcDbLine
 10
99.54314007713829
 20
137.8442859868885
 30
0.0
 11
101.0355854232593
 21
139.3367313330095
 31
0.0
  0
LINE
  5
64D
330
1F
100
AcDbEntity
  8
0
100
AcDbLine
 10
101.7601798835201
 20
140.0613257932703
 30
0.0
 11
104.128394622399
 21
142.4295405321492
 31
0.0
  0
LINE
  5
64E
330
1F
100
AcDbEntity
  8
0
100
AcDbLine
 10
105.0109682533316
 20
143.3121141630818
 30
0.0
 11
105.5062133383748
 21
143.807359248125
 31
0.0
  0
LINE
  5
64F
330
1F
100
AcDbEntity
  8
0
100
AcDbLine
 10
99.5056634177354
 20
137.8442859868885
 30
0.0
 11
101.0355854232593
 21
139.3742079924124
 31
0.0
  0
LINE
  5
650
330
1F
100
AcDbEntity
  8
0
100
AcDbLine
 10
101.7227032241172
 20
140.0613257932703
 30
0.0
 11
104.121804426077
 21
142.4604269952301
 31
0.0
  0
LINE
  5
651
330
1F
100
AcDbEntity
  8
0
100
AcDbLine
 10
105.0109682533316
 20
143.3495908224847
 30
0.0
 11
105.4687366789719
 21
143.807359248125
 31
0.0
  0
LINE
  5
652
330
1F
100
AcDbEntity
  8
0
100
AcDbLine
 10
99.46818675833252
 20
137.8442859868885
 30
0.0
 11
101.0355854232593
 21
139.4116846518153
 31
0.0
  0
LINE
  5
653
330
1F
100
AcDbEntity
  8
0
100
AcDbLine
 10
101.6852265647143
 20
140.0613257932703
 30
0.0
 11
104.114834737381
 21
142.490933965937
 31
0.0
  0
LINE
  5
654
330
1F
100
AcDbEntity
  8
0
100
AcDbLine
 10
105.0109682533316
 20
143.3870674818876
 30
0.0
 11
105.431260019569
 21
143.807359248125
 31
0.0
  0
LINE
  5
655
330
1F
100
AcDbEntity
  8
0
100
AcDbLine
 10
99.43071009892964
 20
137.8442859868885
 30
0.0
 11
101.0355854232593
 21
139.4491613112182
 31
0.0
  0
LINE
  5
656
330
1F
100
AcDbEntity
  8
0
100
AcDbLine
 10
101.6477499053114
 20
140.0613257932703
 30
0.0
 11
104.1075647261709
 21
142.5211406141298
 31
0.0
  0
LINE
  5
657
330
1F
100
AcDbEntity
  8
0
100
AcDbLine
 10
105.0109682533316
 20
143.4245441412905
 30
0.0
 11
105.3937833601661
 21
143.807359248125
 31
0.0
  0
LINE
  5
658
330
1F
100
AcDbEntity
  8
0
100
AcDbLine
 10
99.39323343952675
 20
137.8442859868885
 30
0.0
 11
101.0355854232593
 21
139.486637970621
 31
0.0
  0
LINE
  5
659
330
1F
100
AcDbEntity
  8
0
100
AcDbLine
 10
101.6102732459085
 20
140.0613257932703
 30
0.0
 11
104.0997315550414
 21
142.5507841024032
 31
0.0
  0
LINE
  5
65A
330
1F
100
AcDbEntity
  8
0
100
AcDbLine
 10
105.0109682533316
 20
143.4620208006934
 30
0.0
 11
105.3563067007633
 21
143.807359248125
 31
0.0
  0
LINE
  5
65B
330
1F
100
AcDbEntity
  8
0
100
AcDbLine
 10
99.35575678012387
 20
137.8442859868885
 30
0.0
 11
101.0355854232593
 21
139.5241146300239
 31
0.0
  0
LINE
  5
65C
330
1F
100
AcDbEntity
  8
0
100
AcDbLine
 10
101.5727965865057
 20
140.0613257932703
 30
0.0
 11
104.0916021950118
 21
142.5801314017764
 31
0.0
  0
LINE
  5
65D
330
1F
100
AcDbEntity
  8
0
100
AcDbLine
 10
105.0109682533316
 20
143.4994974600962
 30
0.0
 11
105.3188300413604
 21
143.807359248125
 31
0.0
  0
LINE
  5
65E
330
1F
100
AcDbEntity
  8
0
100
AcDbLine
 10
99.31828012072098
 20
137.8442859868885
 30
0.0
 11
101.0355854232593
 21
139.5615912894268
 31
0.0
  0
LINE
  5
65F
330
1F
100
AcDbEntity
  8
0
100
AcDbLine
 10
101.5353199271028
 20
140.0613257932703
 30
0.0
 11
104.0831918626006
 21
142.6091977287682
 31
0.0
  0
LINE
  5
660
330
1F
100
AcDbEntity
  8
0
100
AcDbLine
 10
105.0109682533316
 20
143.5369741194991
 30
0.0
 11
105.2813533819575
 21
143.807359248125
 31
0.0
  0
LINE
  5
661
330
1F
100
AcDbEntity
  8
0
100
AcDbLine
 10
99.2808034613181
 20
137.8442859868885
 30
0.0
 11
101.0355854232593
 21
139.5990679488297
 31
0.0
  0
LINE
  5
662
330
1F
100
AcDbEntity
  8
0
100
AcDbLine
 10
101.4978432676999
 20
140.0613257932703
 30
0.0
 11
104.0742046020795
 21
142.6376871276499
 31
0.0
  0
LINE
  5
663
330
1F
100
AcDbEntity
  8
0
100
AcDbLine
 10
105.0109682533316
 20
143.574450778902
 30
0.0
 11
105.2438767225546
 21
143.807359248125
 31
0.0
  0
LINE
  5
664
330
1F
100
AcDbEntity
  8
0
100
AcDbLine
 10
99.24332680191522
 20
137.8442859868885
 30
0.0
 11
101.0355854232593
 21
139.6365446082326
 31
0.0
  0
LINE
  5
665
330
1F
100
AcDbEntity
  8
0
100
AcDbLine
 10
101.460366608297
 20
140.0613257932703
 30
0.0
 11
104.0649202933411
 21
142.6658794783144
 31
0.0
  0
LINE
  5
666
330
1F
100
AcDbEntity
  8
0
100
AcDbLine
 10
105.0109682533316
 20
143.6119274383049
 30
0.0
 11
105.2064000631517
 21
143.807359248125
 31
0.0
  0
LINE
  5
667
330
1F
100
AcDbEntity
  8
0
100
AcDbLine
 10
99.20585014251233
 20
137.8442859868885
 30
0.0
 11
101.0355854232593
 21
139.6740212676355
 31
0.0
  0
LINE
  5
668
330
1F
100
AcDbEntity
  8
0
100
AcDbLine
 10
101.4228899488941
 20
140.0613257932703
 30
0.0
 11
104.0553176958716
 21
142.6937535402477
 31
0.0
  0
LINE
  5
669
330
1F
100
AcDbEntity
  8
0
100
AcDbLine
 10
105.0109682533316
 20
143.6494040977078
 30
0.0
 11
105.1689234037488
 21
143.807359248125
 31
0.0
  0
LINE
  5
66A
330
1F
100
AcDbEntity
  8
0
100
AcDbLine
 10
99.16837348310945
 20
137.8442859868885
 30
0.0
 11
101.0355854232593
 21
139.7114979270384
 31
0.0
  0
LINE
  5
66B
330
1F
100
AcDbEntity
  8
0
100
AcDbLine
 10
101.3854132894912
 20
140.0613257932703
 30
0.0
 11
104.0451111421192
 21
142.7210236458982
 31
0.0
  0
LINE
  5
66C
330
1F
100
AcDbEntity
  8
0
100
AcDbLine
 10
105.0109682533316
 20
143.6868807571106
 30
0.0
 11
105.131446744346
 21
143.807359248125
 31
0.0
  0
LINE
  5
66D
330
1F
100
AcDbEntity
  8
0
100
AcDbLine
 10
99.13089682370658
 20
137.8442859868885
 30
0.0
 11
101.0355854232593
 21
139.7489745864412
 31
0.0
  0
LINE
  5
66E
330
1F
100
AcDbEntity
  8
0
100
AcDbLine
 10
101.3479366300884
 20
140.0613257932703
 30
0.0
 11
104.0346227461862
 21
142.7480119093681
 31
0.0
  0
LINE
  5
66F
330
1F
100
AcDbEntity
  8
0
100
AcDbLine
 10
105.0109682533316
 20
143.7243574165136
 30
0.0
 11
105.0939700849431
 21
143.807359248125
 31
0.0
  0
LINE
  5
670
330
1F
100
AcDbEntity
  8
0
100
AcDbLine
 10
99.09342016430368
 20
137.8442859868885
 30
0.0
 11
101.0355854232593
 21
139.7864512458441
 31
0.0
  0
LINE
  5
671
330
1F
100
AcDbEntity
  8
0
100
AcDbLine
 10
101.3104599706855
 20
140.0613257932703
 30
0.0
 11
104.0237205692137
 21
142.7745863917985
 31
0.0
  0
LINE
  5
672
330
1F
100
AcDbEntity
  8
0
100
AcDbLine
 10
105.0109682533316
 20
143.7618340759164
 30
0.0
 11
105.0564934255402
 21
143.807359248125
 31
0.0
  0
LINE
  5
673
330
1F
100
AcDbEntity
  8
0
100
AcDbLine
 10
99.0559435049008
 20
137.8442859868885
 30
0.0
 11
101.0355854232593
 21
139.823927905247
 31
0.0
  0
LINE
  5
674
330
1F
100
AcDbEntity
  8
0
100
AcDbLine
 10
101.2729833112826
 20
140.0613257932703
 30
0.0
 11
104.0123127610612
 21
142.8006552430489
 31
0.0
  0
LINE
  5
675
330
1F
100
AcDbEntity
  8
0
100
AcDbLine
 10
105.0109682533316
 20
143.7993107353193
 30
0.0
 11
105.0190167661373
 21
143.807359248125
 31
0.0
  0
LINE
  5
676
330
1F
100
AcDbEntity
  8
0
100
AcDbLine
 10
99.01846684549791
 20
137.8442859868885
 30
0.0
 11
101.0355854232593
 21
139.8614045646499
 31
0.0
  0
LINE
  5
677
330
1F
100
AcDbEntity
  8
0
100
AcDbLine
 10
101.2355066518797
 20
140.0613257932703
 30
0.0
 11
104.000645901786
 21
142.8264650431766
 31
0.0
  0
LINE
  5
678
330
1F
100
AcDbEntity
  8
0
100
AcDbLine
 10
98.98099018609503
 20
137.8442859868885
 30
0.0
 11
101.0355854232593
 21
139.8988812240528
 31
0.0
  0
LINE
  5
679
330
1F
100
AcDbEntity
  8
0
100
AcDbLine
 10
101.1980299924768
 20
140.0613257932703
 30
0.0
 11
103.98855194026
 21
142.8518477410534
 31
0.0
  0
LINE
  5
67A
330
1F
100
AcDbEntity
  8
0
100
AcDbLine
 10
98.97144563763227
 20
137.8722180978286
 30
0.0
 11
101.0355854232593
 21
139.9363578834557
 31
0.0
  0
LINE
  5
67B
330
1F
100
AcDbEntity
  8
0
100
AcDbLine
 10
101.1605533330739
 20
140.0613257932703
 30
0.0
 11
103.9760890330659
 21
142.8768614932623
 31
0.0
  0
LINE
  5
67C
330
1F
100
AcDbEntity
  8
0
100
AcDbLine
 10
98.97144563763227
 20
137.9096947572315
 30
0.0
 11
101.0355854232593
 21
139.9738345428585
 31
0.0
  0
LINE
  5
67D
330
1F
100
AcDbEntity
  8
0
100
AcDbLine
 10
101.1230766736711
 20
140.0613257932703
 30
0.0
 11
103.9634078252744
 21
142.9016569448737
 31
0.0
  0
LINE
  5
67E
330
1F
100
AcDbEntity
  8
0
100
AcDbLine
 10
98.97144563763227
 20
137.9471714166344
 30
0.0
 11
101.0355854232593
 21
140.0113112022614
 31
0.0
  0
LINE
  5
67F
330
1F
100
AcDbEntity
  8
0
100
AcDbLine
 10
101.0856000142682
 20
140.0613257932703
 30
0.0
 11
103.9502556637131
 21
142.9259814427152
 31
0.0
  0
LINE
  5
680
330
1F
100
AcDbEntity
  8
0
100
AcDbLine
 10
98.97144563763226
 20
137.9846480760373
 30
0.0
 11
101.0355854232593
 21
140.0487878616643
 31
0.0
  0
LINE
  5
681
330
1F
100
AcDbEntity
  8
0
100
AcDbLine
 10
101.0481233548653
 20
140.0613257932703
 30
0.0
 11
103.9368358901982
 21
142.9500383286033
 31
0.0
  0
LINE
  5
682
330
1F
100
AcDbEntity
  8
0
100
AcDbLine
 10
98.97144563763226
 20
138.0221247354401
 30
0.0
 11
103.9231517710427
 21
142.9738308688506
 31
0.0
  0
LINE
  5
683
330
1F
100
AcDbEntity
  8
0
100
AcDbLine
 10
98.97144563763226
 20
138.059601394843
 30
0.0
 11
103.9089591337391
 21
142.9971148909499
 31
0.0
  0
LINE
  5
684
330
1F
100
AcDbEntity
  8
0
100
AcDbLine
 10
98.97144563763226
 20
138.0970780542459
 30
0.0
 11
103.8945377085632
 21
143.0201701251769
 31
0.0
  0
LINE
  5
685
330
1F
100
AcDbEntity
  8
0
100
AcDbLine
 10
98.97144563763226
 20
138.1345547136488
 30
0.0
 11
103.8797030355075
 21
143.042812111524
 31
0.0
  0
LINE
  5
686
330
1F
100
AcDbEntity
  8
0
100
AcDbLine
 10
98.97144563763226
 20
138.1720313730517
 30
0.0
 11
103.8644530616919
 21
143.0650387971114
 31
0.0
  0
LINE
  5
687
330
1F
100
AcDbEntity
  8
0
100
AcDbLine
 10
98.97144563763226
 20
138.2095080324546
 30
0.0
 11
103.8489838140403
 21
143.0870462088626
 31
0.0
  0
LINE
  5
688
330
1F
100
AcDbEntity
  8
0
100
AcDbLine
 10
98.97144563763226
 20
138.2469846918574
 30
0.0
 11
103.8329527165948
 21
143.10849177082
 31
0.0
  0
LINE
  5
689
330
1F
100
AcDbEntity
  8
0
100
AcDbLine
 10
98.97144563763226
 20
138.2844613512603
 30
0.0
 11
103.8167029086905
 21
143.1297186223186
 31
0.0
  0
LINE
  5
68A
330
1F
100
AcDbEntity
  8
0
100
AcDbLine
 10
98.97144563763226
 20
138.3219380106632
 30
0.0
 11
103.8001186354588
 21
143.1506110084898
 31
0.0
  0
LINE
  5
68B
330
1F
100
AcDbEntity
  8
0
100
AcDbLine
 10
98.97144563763226
 20
138.3594146700661
 30
0.0
 11
103.7831473427341
 21
143.1711163751679
 31
0.0
  0
LINE
  5
68C
330
1F
100
AcDbEntity
  8
0
100
AcDbLine
 10
98.97144563763226
 20
138.396891329469
 30
0.0
 11
103.7659995784833
 21
143.19144527032
 31
0.0
  0
LINE
  5
68D
330
1F
100
AcDbEntity
  8
0
100
AcDbLine
 10
98.97144563763226
 20
138.4343679888719
 30
0.0
 11
103.748392969788
 21
143.2113153210276
 31
0.0
  0
LINE
  5
68E
330
1F
100
AcDbEntity
  8
0
100
AcDbLine
 10
98.97144563763224
 20
138.4718446482748
 30
0.0
 11
103.7305774829541
 21
143.2309764935966
 31
0.0
  0
LINE
  5
68F
330
1F
100
AcDbEntity
  8
0
100
AcDbLine
 10
98.97144563763224
 20
138.5093213076776
 30
0.0
 11
101.9467375042832
 21
141.4846131743286
 31
0.0
  0
LINE
  5
690
330
1F
100
AcDbEntity
  8
0
100
AcDbLine
 10
102.0993656508323
 20
141.6372413208776
 30
0.0
 11
103.7124634211332
 21
143.2503390911786
 31
0.0
  0
LINE
  5
691
330
1F
100
AcDbEntity
  8
0
100
AcDbLine
 10
98.97144563763226
 20
138.5467979670805
 30
0.0
 11
101.8664476991938
 21
141.441800028642
 31
0.0
  0
LINE
  5
692
330
1F
100
AcDbEntity
  8
0
100
AcDbLine
 10
102.1421908115311
 20
141.7175431409794
 30
0.0
 11
103.6939651781288
 21
143.2693175075771
 31
0.0
  0
LINE
  5
693
330
1F
100
AcDbEntity
  8
0
100
AcDbLine
 10
98.97144563763226
 20
138.5842746264834
 30
0.0
 11
101.807912421312
 21
141.4207414101631
 31
0.0
  0
LINE
  5
694
330
1F
100
AcDbEntity
  8
0
100
AcDbLine
 10
102.1620119128765
 20
141.7748409017276
 30
0.0
 11
103.6752965053477
 21
143.2881254941989
 31
0.0
  0
LINE
  5
695
330
1F
100
AcDbEntity
  8
0
100
AcDbLine
 10
98.97144563763226
 20
138.6217512858863
 30
0.0
 11
101.7561848182001
 21
141.4064904664542
 31
0.0
  0
LINE
  5
696
330
1F
100
AcDbEntity
  8
0
100
AcDbLine
 10
102.1724917553159
 20
141.8227974035699
 30
0.0
 11
103.6561272864438
 21
143.3064329346979
 31
0.0
  0
LINE
  5
697
330
1F
100
AcDbEntity
  8
0
100
AcDbLine
 10
98.97144563763226
 20
138.6592279452892
 30
0.0
 11
101.7076640353954
 21
141.3954463430523
 31
0.0
  0
LINE
  5
698
330
1F
100
AcDbEntity
  8
0
100
AcDbLine
 10
102.1779420101655
 20
141.8657243178225
 30
0.0
 11
103.6367422107303
 21
143.3245245183872
 31
0.0
  0
LINE
  5
699
330
1F
100
AcDbEntity
  8
0
100
AcDbLine
 10
98.97144563763226
 20
138.6967046046921
 30
0.0
 11
101.661075951554
 21
141.3863349186138
 31
0.0
  0
LINE
  5
69A
330
1F
100
AcDbEntity
  8
0
100
AcDbLine
 10
102.1810433090629
 20
141.9063022761227
 30
0.0
 11
103.6170192371787
 21
143.3422782042385
 31
0.0
  0
LINE
  5
69B
330
1F
100
AcDbEntity
  8
0
100
AcDbLine
 10
98.97144563763226
 20
138.734181264095
 30
0.0
 11
101.6162600058441
 21
141.3789956323068
 31
0.0
  0
LINE
  5
69C
330
1F
100
AcDbEntity
  8
0
100
AcDbLine
 10
102.1816908502487
 20
141.9444264767114
 30
0.0
 11
103.5969060002578
 21
143.3596416267204
 31
0.0
  0
LINE
  5
69D
330
1F
100
AcDbEntity
  8
0
100
AcDbLine
 10
98.97144563763226
 20
138.7716579234978
 30
0.0
 11
101.5730238023608
 21
141.3732360882264
 31
0.0
  0
LINE
  5
69E
330
1F
100
AcDbEntity
  8
0
100
AcDbLine
 10
102.1798794243656
 20
141.9800917102312
 30
0.0
 11
103.5766138524046
 21
143.3768261382702
 31
0.0
  0
LINE
  5
69F
330
1F
100
AcDbEntity
  8
0
100
AcDbLine
 10
98.97144563763226
 20
138.8091345829007
 30
0.0
 11
101.5312988648506
 21
141.3689878101191
 31
0.0
  0
LINE
  5
6A0
330
1F
100
AcDbEntity
  8
0
100
AcDbLine
 10
102.1769266974876
 20
142.0146156427561
 30
0.0
 11
103.5557505371026
 21
143.393439482371
 31
0.0
  0
LINE
  5
6A1
330
1F
100
AcDbEntity
  8
0
100
AcDbLine
 10
98.97144563763226
 20
138.8466112423036
 30
0.0
 11
101.4907805397242
 21
141.3659461443955
 31
0.0
  0
LINE
  5
6A2
330
1F
100
AcDbEntity
  8
0
100
AcDbLine
 10
102.1723645625314
 20
142.0475301672028
 30
0.0
 11
103.5347070091552
 21
143.4098726138265
 31
0.0
  0
LINE
  5
6A3
330
1F
100
AcDbEntity
  8
0
100
AcDbLine
 10
98.97144563763226
 20
138.8840879017065
 30
0.0
 11
101.4512203111449
 21
141.3638625752191
 31
0.0
  0
LINE
  5
6A4
330
1F
100
AcDbEntity
  8
0
100
AcDbLine
 10
102.1657818092022
 20
142.0784240732765
 30
0.0
 11
103.5132422623002
 21
143.4258845263745
 31
0.0
  0
LINE
  5
6A5
330
1F
100
AcDbEntity
  8
0
100
AcDbLine
 10
98.97144563763226
 20
138.9215645611094
 30
0.0
 11
101.4123903931678
 21
141.3625093166449
 31
0.0
  0
LINE
  5
6A6
330
1F
100
AcDbEntity
  8
0
100
AcDbLine
 10
102.1577081473637
 20
142.1078270708408
 30
0.0
 11
103.4914122148191
 21
143.4415311382962
 31
0.0
  0
LINE
  5
6A7
330
1F
100
AcDbEntity
  8
0
100
AcDbLine
 10
98.97144563763226
 20
138.9590412205123
 30
0.0
 11
101.3740931700313
 21
141.3616887529113
 31
0.0
  0
LINE
  5
6A8
330
1F
100
AcDbEntity
  8
0
100
AcDbLine
 10
102.1482313601816
 20
142.1358269430616
 30
0.0
 11
103.4693393157745
 21
143.4569348986545
 31
0.0
  0
LINE
  5
6A9
330
1F
100
AcDbEntity
  8
0
100
AcDbLine
 10
98.97144563763226
 20
138.9965178799152
 30
0.0
 11
101.3360777863448
 21
141.3611500286277
 31
0.0
  0
LINE
  5
6AA
330
1F
100
AcDbEntity
  8
0
100
AcDbLine
 10
102.1375647806457
 20
142.1626370229286
 30
0.0
 11
103.4467406188893
 21
143.4718128611722
 31
0.0
  0
LINE
  5
6AB
330
1F
100
AcDbEntity
  8
0
100
AcDbLine
 10
98.97144563763227
 20
139.033994539318
 30
0.0
 11
101.2984216988336
 21
141.3609706005193
 31
0.0
  0
LINE
  5
6AC
330
1F
100
AcDbEntity
  8
0
100
AcDbLine
 10
102.1259373044773
 20
142.1884862061631
 30
0.0
 11
103.4239732616027
 21
143.4865221632884
 31
0.0
  0
LINE
  5
6AD
330
1F
100
AcDbEntity
  8
0
100
AcDbLine
 10
98.97144563763224
 20
139.0714711987209
 30
0.0
 11
101.2609450568148
 21
141.3609706179034
 31
0.0
  0
LINE
  5
6AE
330
1F
100
AcDbEntity
  8
0
100
AcDbLine
 10
102.1133294161808
 20
142.2133549772694
 30
0.0
 11
103.4007284518398
 21
143.5007540129285
 31
0.0
  0
LINE
  5
6AF
330
1F
100
AcDbEntity
  8
0
100
AcDbLine
 10
98.97144563763224
 20
139.1089478581238
 30
0.0
 11
101.223468414796
 21
141.3609706352876
 31
0.0
  0
LINE
  5
6B0
330
1F
100
AcDbEntity
  8
0
100
AcDbLine
 10
102.0997672860839
 20
142.2372695065754
 30
0.0
 11
103.3772260521524
 21
143.5147282726439
 31
0.0
  0
LINE
  5
6B1
330
1F
100
AcDbEntity
  8
0
100
AcDbLine
 10
98.97144563763224
 20
139.1464245175267
 30
0.0
 11
101.1859917727773
 21
141.3609706526717
 31
0.0
  0
LINE
  5
6B2
330
1F
100
AcDbEntity
  8
0
100
AcDbLine
 10
102.0852636551689
 20
142.2602425350634
 30
0.0
 11
103.3534308089104
 21
143.5284096888048
 31
0.0
  0
LINE
  5
6B3
330
1F
100
AcDbEntity
  8
0
100
AcDbLine
 10
98.97144563763224
 20
139.1839011769295
 30
0.0
 11
101.1485151307585
 21
141.3609706700558
 31
0.0
  0
LINE
  5
6B4
330
1F
100
AcDbEntity
  8
0
100
AcDbLine
 10
102.0698322621974
 20
142.2822878014946
 30
0.0
 11
103.3292129896286
 21
143.5416685289259
 31
0.0
  0
LINE
  5
6B5
330
1F
100
AcDbEntity
  8
0
100
AcDbLine
 10
98.97144563763224
 20
139.2213778363324
 30
0.0
 11
101.1110384887397
 21
141.3609706874399
 31
0.0
  0
LINE
  5
6B6
330
1F
100
AcDbEntity
  8
0
100
AcDbLine
 10
102.0534411847883
 20
142.3033733834885
 30
0.0
 11
103.304856195672
 21
143.5547883943722
 31
0.0
  0
LINE
  5
6B7
330
1F
100
AcDbEntity
  8
0
100
AcDbLine
 10
98.97144563763224
 20
139.2588544957353
 30
0.0
 11
101.073561846721
 21
141.360970704824
 31
0.0
  0
LINE
  5
6B8
330
1F
100
AcDbEntity
  8
0
100
AcDbLine
 10
102.0360525003684
 20
142.3234613584715
 30
0.0
 11
103.2799690411206
 21
143.5673778992236
 31
0.0
  0
LINE
  5
6B9
330
1F
100
AcDbEntity
  8
0
100
AcDbLine
 10
98.97144563763224
 20
139.2963311551382
 30
0.0
 11
101.0360852047022
 21
141.3609707222082
 31
0.0
  0
LINE
  5
6BA
330
1F
100
AcDbEntity
  8
0
100
AcDbLine
 10
102.0176688343433
 20
142.3425543518493
 30
0.0
 11
103.2549129658134
 21
143.5797984833193
 31
0.0
  0
LINE
  5
6BB
330
1F
100
AcDbEntity
  8
0
100
AcDbLine
 10
98.97144563763224
 20
139.3338078145411
 30
0.0
 11
101.0355854232593
 21
141.3979476001682
 31
0.0
  0
LINE
  5
6BC
330
1F
100
AcDbEntity
  8
0
100
AcDbLine
 10
101.998143968261
 20
142.3605061451699
 30
0.0
 11
103.2294740489476
 21
143.5918362258565
 31
0.0
  0
LINE
  5
6BD
330
1F
100
AcDbEntity
  8
0
100
AcDbLine
 10
98.97144563763224
 20
139.371284473944
 30
0.0
 11
101.0355854232593
 21
141.435424259571
 31
0.0
  0
LINE
  5
6BE
330
1F
100
AcDbEntity
  8
0
100
AcDbLine
 10
101.9774661313826
 20
142.3773049676943
 30
0.0
 11
103.2037066897041
 21
143.6035455260158
 31
0.0
  0
LINE
  5
6BF
330
1F
100
AcDbEntity
  8
0
100
AcDbLine
 10
98.97144563763224
 20
139.4087611333469
 30
0.0
 11
101.0355854232593
 21
141.4729009189739
 31
0.0
  0
LINE
  5
6C0
330
1F
100
AcDbEntity
  8
0
100
AcDbLine
 10
101.9556147318127
 20
142.3929302275273
 30
0.0
 11
103.1777132586979
 21
143.6150287544125
 31
0.0
  0
LINE
  5
6C1
330
1F
100
AcDbEntity
  8
0
100
AcDbLine
 10
98.97144563763224
 20
139.4462377927497
 30
0.0
 11
101.0355854232593
 21
141.5103775783768
 31
0.0
  0
LINE
  5
6C2
330
1F
100
AcDbEntity
  8
0
100
AcDbLine
 10
101.9325562069498
 20
142.4073483620673
 30
0.0
 11
103.1512075720435
 21
143.6259997271609
 31
0.0
  0
LINE
  5
6C3
330
1F
100
AcDbEntity
  8
0
100
AcDbLine
 10
98.97144563763226
 20
139.4837144521526
 30
0.0
 11
101.0355854232593
 21
141.5478542377797
 31
0.0
  0
LINE
  5
6C4
330
1F
100
AcDbEntity
  8
0
100
AcDbLine
 10
101.9081150284372
 20
142.4203838429576
 30
0.0
 11
103.1245619473168
 21
143.6368307618372
 31
0.0
  0
LINE
  5
6C5
330
1F
100
AcDbEntity
  8
0
100
AcDbLine
 10
98.97144563763226
 20
139.5211911115555
 30
0.0
 11
101.0355854232593
 21
141.5853308971826
 31
0.0
  0
LINE
  5
6C6
330
1F
100
AcDbEntity
  8
0
100
AcDbLine
 10
101.8823076845817
 20
142.432053158505
 30
0.0
 11
103.0974014657692
 21
143.6471469396925
 31
0.0
  0
LINE
  5
6C7
330
1F
100
AcDbEntity
  8
0
100
AcDbLine
 10
98.97144563763226
 20
139.5586677709584
 30
0.0
 11
101.0355854232593
 21
141.6228075565854
 31
0.0
  0
LINE
  5
6C8
330
1F
100
AcDbEntity
  8
0
100
AcDbLine
 10
101.8554945651627
 20
142.4427166984888
 30
0.0
 11
103.0700025426913
 21
143.6572246760174
 31
0.0
  0
LINE
  5
6C9
330
1F
100
AcDbEntity
  8
0
100
AcDbLine
 10
98.97144563763226
 20
139.5961444303613
 30
0.0
 11
101.0355854232593
 21
141.6602842159883
 31
0.0
  0
LINE
  5
6CA
330
1F
100
AcDbEntity
  8
0
100
AcDbLine
 10
101.8277916603016
 20
142.4524904530306
 30
0.0
 11
103.0422363890907
 21
143.6669351818198
 31
0.0
  0
LINE
  5
6CB
330
1F
100
AcDbEntity
  8
0
100
AcDbLine
 10
98.97144563763226
 20
139.6336210897642
 30
0.0
 11
101.0355854232593
 21
141.6977608753912
 31
0.0
  0
LINE
  5
6CC
330
1F
100
AcDbEntity
  8
0
100
AcDbLine
 10
101.7992610528335
 20
142.4614365049654
 30
0.0
 11
103.0140530210138
 21
143.6762284731457
 31
0.0
  0
LINE
  5
6CD
330
1F
100
AcDbEntity
  8
0
100
AcDbLine
 10
98.97144563763226
 20
139.671097749167
 30
0.0
 11
101.0355854232593
 21
141.7352375347941
 31
0.0
  0
LINE
  5
6CE
330
1F
100
AcDbEntity
  8
0
100
AcDbLine
 10
101.7696910608597
 20
142.4693431723945
 30
0.0
 11
102.9856684489195
 21
143.6853205604544
 31
0.0
  0
LINE
  5
6CF
330
1F
100
AcDbEntity
  8
0
100
AcDbLine
 10
98.97144563763226
 20
139.7085744085699
 30
0.0
 11
101.0355854232593
 21
141.772714194197
 31
0.0
  0
LINE
  5
6D0
330
1F
100
AcDbEntity
  8
0
100
AcDbLine
 10
101.7391797495872
 20
142.4763085205249
 30
0.0
 11
102.9566553222425
 21
143.6937840931801
 31
0.0
  0
LINE
  5
6D1
330
1F
100
AcDbEntity
  8
0
100
AcDbLine
 10
98.97144563763226
 20
139.7460510679728
 30
0.0
 11
101.0355854232593
 21
141.8101908535999
 31
0.0
  0
LINE
  5
6D2
330
1F
100
AcDbEntity
  8
0
100
AcDbLine
 10
101.7077619464252
 20
142.4823673767658
 30
0.0
 11
102.9274994315585
 21
143.7021048618991
 31
0.0
  0
LINE
  5
6D3
330
1F
100
AcDbEntity
  8
0
100
AcDbLine
 10
98.97144563763226
 20
139.7835277273757
 30
0.0
 11
101.0355854232593
 21
141.8476675130028
 31
0.0
  0
LINE
  5
6D4
330
1F
100
AcDbEntity
  8
0
100
AcDbLine
 10
101.6757068449293
 20
142.4877889346727
 30
0.0
 11
102.8978440019769
 21
143.7099260917204
 31
0.0
  0
LINE
  5
6D5
330
1F
100
AcDbEntity
  8
0
100
AcDbLine
 10
98.97144563763226
 20
139.8210043867786
 30
0.0
 11
101.0355854232593
 21
141.8851441724056
 31
0.0
  0
LINE
  5
6D6
330
1F
100
AcDbEntity
  8
0
100
AcDbLine
 10
101.6429792926249
 20
142.4925380417712
 30
0.0
 11
102.8679226126343
 21
143.7174813617806
 31
0.0
  0
LINE
  5
6D7
330
1F
100
AcDbEntity
  8
0
100
AcDbLine
 10
98.97144563763226
 20
139.8584810461815
 30
0.0
 11
101.0355854232593
 21
141.9226208318085
 31
0.0
  0
LINE
  5
6D8
330
1F
100
AcDbEntity
  8
0
100
AcDbLine
 10
101.6096960053684
 20
142.4967314139176
 30
0.0
 11
102.8376851120165
 21
143.7247205205657
 31
0.0
  0
LINE
  5
6D9
330
1F
100
AcDbEntity
  8
0
100
AcDbLine
 10
98.97144563763226
 20
139.8959577055844
 30
0.0
 11
101.0355854232593
 21
141.9600974912114
 31
0.0
  0
LINE
  5
6DA
330
1F
100
AcDbEntity
  8
0
100
AcDbLine
 10
101.5757504630485
 20
142.5002625310006
 30
0.0
 11
102.8070578444483
 21
143.7315699124004
 31
0.0
  0
LINE
  5
6DB
330
1F
100
AcDbEntity
  8
0
100
AcDbLine
 10
98.97144563763226
 20
139.9334343649872
 30
0.0
 11
101.0355854232593
 21
141.9975741506143
 31
0.0
  0
LINE
  5
6DC
330
1F
100
AcDbEntity
  8
0
100
AcDbLine
 10
101.5411551890278
 20
142.5031439163828
 30
0.0
 11
102.7762732624434
 21
143.7382619897984
 31
0.0
  0
LINE
  5
6DD
330
1F
100
AcDbEntity
  8
0
100
AcDbLine
 10
98.97144563763226
 20
139.9709110243901
 30
0.0
 11
101.0355854232593
 21
142.0350508100172
 31
0.0
  0
LINE
  5
6DE
330
1F
100
AcDbEntity
  8
0
100
AcDbLine
 10
101.5058183517427
 20
142.5052837385006
 30
0.0
 11
102.7450032219468
 21
143.7444686087047
 31
0.0
  0
LINE
  5
6DF
330
1F
100
AcDbEntity
  8
0
100
AcDbLine
 10
98.97144563763226
 20
140.008387683793
 30
0.0
 11
101.0355854232593
 21
142.0725274694201
 31
0.0
  0
LINE
  5
6E0
330
1F
100
AcDbEntity
  8
0
100
AcDbLine
 10
101.469639229679
 20
142.5065812758398
 30
0.0
 11
102.7136075341391
 21
143.7505495802998
 31
0.0
  0
LINE
  5
6E1
330
1F
100
AcDbEntity
  8
0
100
AcDbLine
 10
98.97144563763226
 20
140.0458643431959
 30
0.0
 11
101.0355854232593
 21
142.1100041288229
 31
0.0
  0
LINE
  5
6E2
330
1F
100
AcDbEntity
  8
0
100
AcDbLine
 10
101.4328888143364
 20
142.5073075199001
 30
0.0
 11
102.6818393451876
 21
143.7562580507512
 31
0.0
  0
LINE
  5
6E3
330
1F
100
AcDbEntity
  8
0
100
AcDbLine
 10
98.97144563763226
 20
140.0833410025988
 30
0.0
 11
101.0355854232593
 21
142.1474807882258
 31
0.0
  0
LINE
  5
6E4
330
1F
100
AcDbEntity
  8
0
100
AcDbLine
 10
101.3957934831886
 20
142.5076888481551
 30
0.0
 11
102.6498281514263
 21
143.7617235163928
 31
0.0
  0
LINE
  5
6E5
330
1F
100
AcDbEntity
  8
0
100
AcDbLine
 10
98.97144563763226
 20
140.1208176620017
 30
0.0
 11
101.0355854232593
 21
142.1849574476287
 31
0.0
  0
LINE
  5
6E6
330
1F
100
AcDbEntity
  8
0
100
AcDbLine
 10
101.3583436064855
 20
142.5077156308549
 30
0.0
 11
102.6175707374498
 21
143.7669427618192
 31
0.0
  0
LINE
  5
6E7
330
1F
100
AcDbEntity
  8
0
100
AcDbLine
 10
98.97144563763226
 20
140.1582943214046
 30
0.0
 11
101.0355854232593
 21
142.2224341070316
 31
0.0
  0
LINE
  5
6E8
330
1F
100
AcDbEntity
  8
0
100
AcDbLine
 10
101.3208669470826
 20
142.5077156308549
 30
0.0
 11
102.5849476731215
 21
143.7717963568938
 31
0.0
  0
LINE
  5
6E9
330
1F
100
AcDbEntity
  8
0
100
AcDbLine
 10
98.97144563763226
 20
140.1957709808074
 30
0.0
 11
101.0355854232593
 21
142.2599107664345
 31
0.0
  0
LINE
  5
6EA
330
1F
100
AcDbEntity
  8
0
100
AcDbLine
 10
101.2833902876797
 20
142.5077156308549
 30
0.0
 11
102.5521906871819
 21
143.7765160303571
 31
0.0
  0
LINE
  5
6EB
330
1F
100
AcDbEntity
  8
0
100
AcDbLine
 10
98.97144563763226
 20
140.2332476402103
 30
0.0
 11
101.0355854232593
 21
142.2973874258374
 31
0.0
  0
LINE
  5
6EC
330
1F
100
AcDbEntity
  8
0
100
AcDbLine
 10
101.2459136282768
 20
142.5077156308549
 30
0.0
 11
102.5190466220342
 21
143.7808486246123
 31
0.0
  0
LINE
  5
6ED
330
1F
100
AcDbEntity
  8
0
100
AcDbLine
 10
98.97144563763226
 20
140.2707242996132
 30
0.0
 11
101.0355854232593
 21
142.3348640852402
 31
0.0
  0
LINE
  5
6EE
330
1F
100
AcDbEntity
  8
0
100
AcDbLine
 10
101.208436968874
 20
142.5077156308549
 30
0.0
 11
102.4856036425104
 21
143.7848823044913
 31
0.0
  0
LINE
  5
6EF
330
1F
100
AcDbEntity
  8
0
100
AcDbLine
 10
98.97144563763226
 20
140.3082009590161
 30
0.0
 11
101.0355854232593
 21
142.3723407446431
 31
0.0
  0
LINE
  5
6F0
330
1F
100
AcDbEntity
  8
0
100
AcDbLine
 10
101.1709603094711
 20
142.5077156308549
 30
0.0
 11
102.451860867048
 21
143.7886161884319
 31
0.0
  0
LINE
  5
6F1
330
1F
100
AcDbEntity
  8
0
100
AcDbLine
 10
98.97144563763226
 20
140.345677618419
 30
0.0
 11
101.0355854232593
 21
142.409817404046
 31
0.0
  0
LINE
  5
6F2
330
1F
100
AcDbEntity
  8
0
100
AcDbLine
 10
101.1334836500682
 20
142.5077156308549
 30
0.0
 11
102.4177992554
 21
143.7920312361867
 31
0.0
  0
LINE
  5
6F3
330
1F
100
AcDbEntity
  8
0
100
AcDbLine
 10
97.07956135535353
 20
138.4912699955431
 30
0.0
 11
97.28449242907949
 21
138.6962010692691
 31
0.0
  0
LINE
  5
6F4
330
1F
100
AcDbEntity
  8
0
100
AcDbLine
 10
98.97144563763226
 20
140.3831542778219
 30
0.0
 11
101.0355854232593
 21
142.4472940634489
 31
0.0
  0
LINE
  5
6F5
330
1F
100
AcDbEntity
  8
0
100
AcDbLine
 10
101.0960069906653
 20
142.5077156308549
 30
0.0
 11
102.383397928455
 21
143.7951065686445
 31
0.0
  0
LINE
  5
6F6
330
1F
100
AcDbEntity
  8
0
100
AcDbLine
 10
96.88336214331184
 20
138.3325474429043
 30
0.0
 11
97.43946831210279
 21
138.8886536116953
 31
0.0
  0
LINE
  5
6F7
330
1F
100
AcDbEntity
  8
0
100
AcDbLine
 10
98.97144563763226
 20
140.4206309372248
 30
0.0
 11
101.0355854232593
 21
142.4847707228518
 31
0.0
  0
LINE
  5
6F8
330
1F
100
AcDbEntity
  8
0
100
AcDbLine
 10
101.0585303312624
 20
142.5077156308549
 30
0.0
 11
102.3486339304227
 21
143.7978192300152
 31
0.0
  0
LINE
  5
6F9
330
1F
100
AcDbEntity
  8
0
100
AcDbLine
 10
96.7634067128212
 20
138.2500686718166
 30
0.0
 11
97.51873568613041
 21
139.0053976451258
 31
0.0
  0
LINE
  5
6FA
330
1F
100
AcDbEntity
  8
0
100
AcDbLine
 10
98.97144563763224
 20
140.4581075966276
 30
0.0
 11
102.3134690601675
 21
143.8001310191628
 31
0.0
  0
LINE
  5
6FB
330
1F
100
AcDbEntity
  8
0
100
AcDbLine
 10
96.6633116937642
 20
138.1874503121624
 30
0.0
 11
97.57675201135896
 21
139.1008906297572
 31
0.0
  0
LINE
  5
6FC
330
1F
100
AcDbEntity
  8
0
100
AcDbLine
 10
98.97144563763224
 20
140.4955842560305
 30
0.0
 11
102.2778349540186
 21
143.8019735724169
 31
0.0
  0
LINE
  5
6FD
330
1F
100
AcDbEntity
  8
0
100
AcDbLine
 10
96.57558908269033
 20
138.1372043604915
 30
0.0
 11
97.62320054386521
 21
139.1848158216663
 31
0.0
  0
LINE
  5
6FE
330
1F
100
AcDbEntity
  8
0
100
AcDbLine
 10
98.97144563763224
 20
140.5330609154334
 30
0.0
 11
102.2418484587975
 21
143.8034637365986
 31
0.0
  0
LINE
  5
6FF
330
1F
100
AcDbEntity
  8
0
100
AcDbLine
 10
96.49690570487725
 20
138.0959976420813
 30
0.0
 11
97.66155911731745
 21
139.2606510545215
 31
0.0
  0
LINE
  5
700
330
1F
100
AcDbEntity
  8
0
100
AcDbLine
 10
98.97144563763224
 20
140.5705375748363
 30
0.0
 11
102.2055518860999
 21
143.8046438233039
 31
0.0
  0
LINE
  5
701
330
1F
100
AcDbEntity
  8
0
100
AcDbLine
 10
96.4242935078957
 20
138.0608621045026
 30
0.0
 11
97.694484781471
 21
139.3310533780779
 31
0.0
  0
LINE
  5
702
330
1F
100
AcDbEntity
  8
0
100
AcDbLine
 10
98.97144563763224
 20
140.6080142342391
 30
0.0
 11
102.1689946478812
 21
143.8055632444881
 31
0.0
  0
LINE
  5
703
330
1F
100
AcDbEntity
  8
0
100
AcDbLine
 10
96.35668411993115
 20
138.030729375941
 30
0.0
 11
97.72320077904796
 21
139.3972460350577
 31
0.0
  0
LINE
  5
704
330
1F
100
AcDbEntity
  8
0
100
AcDbLine
 10
98.97144563763224
 20
140.645490893642
 30
0.0
 11
102.1322315452018
 21
143.8062768012116
 31
0.0
  0
LINE
  5
705
330
1F
100
AcDbEntity
  8
0
100
AcDbLine
 10
96.29240344744954
 20
138.0039253628622
 30
0.0
 11
97.74883377056516
 21
139.4603556859778
 31
0.0
  0
LINE
  5
706
330
1F
100
AcDbEntity
  8
0
100
AcDbLine
 10
98.97144563763224
 20
140.6829675530449
 30
0.0
 11
102.0953216494564
 21
143.806843564869
 31
0.0
  0
LINE
  5
707
330
1F
100
AcDbEntity
  8
0
100
AcDbLine
 10
96.23124635004298
 20
137.9802449248585
 30
0.0
 11
97.7714142019271
 21
139.5204127767427
 31
0.0
  0
LINE
  5
708
330
1F
100
AcDbEntity
  8
0
100
AcDbLine
 10
98.97144563763224
 20
140.7204442124478
 30
0.0
 11
102.0583269900186
 21
143.8073255648342
 31
0.0
  0
LINE
  5
709
330
1F
100
AcDbEntity
  8
0
100
AcDbLine
 10
96.17270701601659
 20
137.959182250235
 30
0.0
 11
97.79164737931174
 21
139.5781226135302
 31
0.0
  0
LINE
  5
70A
330
1F
100
AcDbEntity
  8
0
100
AcDbLine
 10
98.97144563763224
 20
140.7579208718507
 30
0.0
 11
102.0208844110848
 21
143.8073596453032
 31
0.0
  0
LINE
  5
70B
330
1F
100
AcDbEntity
  8
0
100
AcDbLine
 10
96.11623756436212
 20
137.9401894579835
 30
0.0
 11
97.8098191588441
 21
139.6337710524654
 31
0.0
  0
LINE
  5
70C
330
1F
100
AcDbEntity
  8
0
100
AcDbLine
 10
98.97144563763224
 20
140.7953975312536
 30
0.0
 11
101.9834077468007
 21
143.807359640422
 31
0.0
  0
LINE
  5
70D
330
1F
100
AcDbEntity
  8
0
100
AcDbLine
 10
96.06156740349557
 20
137.9229959565198
 30
0.0
 11
97.82621469360507
 21
139.6876432466293
 31
0.0
  0
LINE
  5
70E
330
1F
100
AcDbEntity
  8
0
100
AcDbLine
 10
98.97144563763224
 20
140.8328741906564
 30
0.0
 11
101.9459310825166
 21
143.8073596355408
 31
0.0
  0
LINE
  5
70F
330
1F
100
AcDbEntity
  8
0
100
AcDbLine
 10
96.00848888800799
 20
137.9073941004351
 30
0.0
 11
97.84108336824643
 21
139.7399885806735
 31
0.0
  0
LINE
  5
710
330
1F
100
AcDbEntity
  8
0
100
AcDbLine
 10
98.97144563763224
 20
140.8703508500593
 30
0.0
 11
101.9084544182325
 21
143.8073596306596
 31
0.0
  0
LINE
  5
711
330
1F
100
AcDbEntity
  8
0
100
AcDbLine
 10
95.95679958616604
 20
137.893181457996
 30
0.0
 11
97.85460263020649
 21
139.7909845020365
 31
0.0
  0
LINE
  5
712
330
1F
100
AcDbEntity
  8
0
100
AcDbLine
 10
98.97144563763224
 20
140.9078275094622
 30
0.0
 11
101.8709777539484
 21
143.8073596257784
 31
0.0
  0
LINE
  5
713
330
1F
100
AcDbEntity
  8
0
100
AcDbLine
 10
95.9063543008539
 20
137.8802128320868
 30
0.0
 11
97.86695719498019
 21
139.8408157262131
 31
0.0
  0
LINE
  5
714
330
1F
100
AcDbEntity
  8
0
100
AcDbLine
 10
98.97144563763224
 20
140.9453041688651
 30
0.0
 11
101.8335010896643
 21
143.8073596208972
 31
0.0
  0
LINE
  5
715
330
1F
100
AcDbEntity
  8
0
100
AcDbLine
 10
95.8570231219907
 20
137.8683583126264
 30
0.0
 11
97.87827897588329
 21
139.889614166519
 31
0.0
  0
LINE
  5
716
330
1F
100
AcDbEntity
  8
0
100
AcDbLine
 10
98.97144563763224
 20
140.982780828268
 30
0.0
 11
101.7960244253803
 21
143.807359616016
 31
0.0
  0
LINE
  5
717
330
1F
100
AcDbEntity
  8
0
100
AcDbLine
 10
95.80870612965693
 20
137.8575179796956
 30
0.0
 11
97.88868024145577
 21
139.9374920914944
 31
0.0
  0
LINE
  5
718
330
1F
100
AcDbEntity
  8
0
100
AcDbLine
 10
98.97144563763224
 20
141.0202574876709
 30
0.0
 11
101.7585477610962
 21
143.8073596111348
 31
0.0
  0
LINE
  5
719
330
1F
100
AcDbEntity
  8
0
100
AcDbLine
 10
95.76128297680354
 20
137.847571486245
 30
0.0
 11
97.89824176464123
 21
139.9845302740827
 31
0.0
  0
LINE
  5
71A
330
1F
100
AcDbEntity
  8
0
100
AcDbLine
 10
98.97144563763226
 20
141.0577341470738
 30
0.0
 11
101.7210710968121
 21
143.8073596062536
 31
0.0
  0
LINE
  5
71B
330
1F
100
AcDbEntity
  8
0
100
AcDbLine
 10
95.71468197677191
 20
137.8384471456163
 30
0.0
 11
97.90705607775791
 21
140.0308212466023
 31
0.0
  0
LINE
  5
71C
330
1F
100
AcDbEntity
  8
0
100
AcDbLine
 10
98.97144563763226
 20
141.0952108064766
 30
0.0
 11
101.683594432528
 21
143.8073596013724
 31
0.0
  0
LINE
  5
71D
330
1F
100
AcDbEntity
  8
0
100
AcDbLine
 10
95.66883370624802
 20
137.8300755344953
 30
0.0
 11
97.9151793732878
 21
140.0764212015351
 31
0.0
  0
LINE
  5
71E
330
1F
100
AcDbEntity
  8
0
100
AcDbLine
 10
98.97144563763226
 20
141.1326874658795
 30
0.0
 11
101.6461177682439
 21
143.8073595964912
 31
0.0
  0
LINE
  5
71F
330
1F
100
AcDbEntity
  8
0
100
AcDbLine
 10
95.62377443983479
 20
137.8224929274849
 30
0.0
 11
97.92266306501023
 21
140.1213815526604
 31
0.0
  0
LINE
  5
720
330
1F
100
AcDbEntity
  8
0
100
AcDbLine
 10
98.97144563763226
 20
141.1701641252824
 30
0.0
 11
101.6086411039599
 21
143.80735959161
 31
0.0
  0
LINE
  5
721
330
1F
100
AcDbEntity
  8
0
100
AcDbLine
 10
95.57944280401338
 20
137.8156379510664
 30
0.0
 11
97.9295499316607
 21
140.1657450787137
 31
0.0
  0
LINE
  5
722
330
1F
100
AcDbEntity
  8
0
100
AcDbLine
 10
98.97144563763226
 20
141.2076407846853
 30
0.0
 11
101.5711644396758
 21
143.8073595867288
 31
0.0
  0
LINE
  5
723
330
1F
100
AcDbEntity
  8
0
100
AcDbLine
 10
95.53566995835361
 20
137.8093417648095
 30
0.0
 11
97.93581280378797
 21
140.2094846102439
 31
0.0
  0
LINE
  5
724
330
1F
100
AcDbEntity
  8
0
100
AcDbLine
 10
98.97144563763226
 20
141.2451174440882
 30
0.0
 11
101.5336877753917
 21
143.8073595818476
 31
0.0
  0
LINE
  5
725
330
1F
100
AcDbEntity
  8
0
100
AcDbLine
 10
95.4924112042204
 20
137.8035596700792
 30
0.0
 11
97.941456144852
 21
140.2526046107108
 31
0.0
  0
LINE
  5
726
330
1F
100
AcDbEntity
  8
0
100
AcDbLine
 10
98.97144563763226
 20
141.2825941034911
 30
0.0
 11
101.4962111111076
 21
143.8073595769664
 31
0.0
  0
LINE
  5
727
330
1F
100
AcDbEntity
  8
0
100
AcDbLine
 10
95.44965951941927
 20
137.798284644681
 30
0.0
 11
97.94661749507
 21
140.2952426203317
 31
0.0
  0
LINE
  5
728
330
1F
100
AcDbEntity
  8
0
100
AcDbLine
 10
98.97144563763226
 20
141.3200707628939
 30
0.0
 11
101.4587344468235
 21
143.8073595720852
 31
0.0
  0
LINE
  5
729
330
1F
100
AcDbEntity
  8
0
100
AcDbLine
 10
95.40752274023421
 20
137.7936245248988
 30
0.0
 11
97.95132192618686
 21
140.3374237108515
 31
0.0
  0
LINE
  5
72A
330
1F
100
AcDbEntity
  8
0
100
AcDbLine
 10
98.97144563763226
 20
141.3575474222968
 30
0.0
 11
101.4212577825394
 21
143.807359567204
 31
0.0
  0
LINE
  5
72B
330
1F
100
AcDbEntity
  8
0
100
AcDbLine
 10
95.3657209004153
 20
137.7892993444828
 30
0.0
 11
97.95549972280016
 21
140.3790781668676
 31
0.0
  0
LINE
  5
72C
330
1F
100
AcDbEntity
  8
0
100
AcDbLine
 10
98.97144563763226
 20
141.3950240816997
 30
0.0
 11
101.3837811182554
 21
143.8073595623228
 31
0.0
  0
LINE
  5
72D
330
1F
100
AcDbEntity
  8
0
100
AcDbLine
 10
95.32439325315676
 20
137.7854483566271
 30
0.0
 11
97.9592074423729
 21
140.4202625458433
 31
0.0
  0
LINE
  5
72E
330
1F
100
AcDbEntity
  8
0
100
AcDbLine
 10
98.97144563763226
 20
141.4325007411026
 30
0.0
 11
101.3463044539713
 21
143.8073595574416
 31
0.0
  0
LINE
  5
72F
330
1F
100
AcDbEntity
  8
0
100
AcDbLine
 10
95.28349836140916
 20
137.7820301242824
 30
0.0
 11
97.962454267196
 21
140.4609860300692
 31
0.0
  0
LINE
  5
730
330
1F
100
AcDbEntity
  8
0
100
AcDbLine
 10
98.97144563763226
 20
141.4699774005055
 30
0.0
 11
101.3088277896872
 21
143.8073595525604
 31
0.0
  0
LINE
  5
731
330
1F
100
AcDbEntity
  8
0
100
AcDbLine
 10
95.24303554805996
 20
137.7790439703361
 30
0.0
 11
97.96528520603403
 21
140.5012936283102
 31
0.0
  0
LINE
  5
732
330
1F
100
AcDbEntity
  8
0
100
AcDbLine
 10
98.97144563763226
 20
141.5074540599084
 30
0.0
 11
101.2713511254031
 21
143.8073595476792
 31
0.0
  0
LINE
  5
733
330
1F
100
AcDbEntity
  8
0
100
AcDbLine
 10
95.2030035180643
 20
137.7764885997433
 30
0.0
 11
97.96772882741709
 21
140.5412139090961
 31
0.0
  0
LINE
  5
734
330
1F
100
AcDbEntity
  8
0
100
AcDbLine
 10
98.97144563763226
 20
141.5449307193113
 30
0.0
 11
101.233874461119
 21
143.8073595427981
 31
0.0
  0
LINE
  5
735
330
1F
100
AcDbEntity
  8
0
100
AcDbLine
 10
95.1634003944143
 20
137.7743621354962
 30
0.0
 11
97.96981150435627
 21
140.5807732454382
 31
0.0
  0
LINE
  5
736
330
1F
100
AcDbEntity
  8
0
100
AcDbLine
 10
98.97144563763226
 20
141.5824073787142
 30
0.0
 11
101.196397796835
 21
143.8073595379169
 31
0.0
  0
LINE
  5
737
330
1F
100
AcDbEntity
  8
0
100
AcDbLine
 10
95.1242199776812
 20
137.772658378166
 30
0.0
 11
97.97155764621186
 21
140.6199960466967
 31
0.0
  0
LINE
  5
738
330
1F
100
AcDbEntity
  8
0
100
AcDbLine
 10
98.97144563763226
 20
141.619884038117
 30
0.0
 11
101.1589211325509
 21
143.8073595330357
 31
0.0
  0
LINE
  5
739
330
1F
100
AcDbEntity
  8
0
100
AcDbLine
 10
95.08539921151909
 20
137.7713142714067
 30
0.0
 11
97.97298985338914
 21
140.6589049132768
 31
0.0
  0
LINE
  5
73A
330
1F
100
AcDbEntity
  8
0
100
AcDbLine
 10
98.97144563763226
 20
141.6573606975199
 30
0.0
 11
101.1214444682668
 21
143.8073595281544
 31
0.0
  0
LINE
  5
73B
330
1F
100
AcDbEntity
  8
0
100
AcDbLine
 10
95.04687161592831
 20
137.7702633352189
 30
0.0
 11
97.97416625230984
 21
140.6975579716004
 31
0.0
  0
LINE
  5
73C
330
1F
100
AcDbEntity
  8
0
100
AcDbLine
 10
98.97144563763226
 20
141.6948373569228
 30
0.0
 11
101.0839678039827
 21
143.8073595232732
 31
0.0
  0
LINE
  5
73D
330
1F
100
AcDbEntity
  8
0
100
AcDbLine
 10
95.00857004138244
 20
137.7694384200759
 30
0.0
 11
97.97513805593081
 21
140.7360064346242
 31
0.0
  0
LINE
  5
73E
330
1F
100
AcDbEntity
  8
0
100
AcDbLine
 10
98.97144563763226
 20
141.7323140163257
 30
0.0
 11
101.0464911396986
 21
143.807359518392
 31
0.0
  0
LINE
  5
73F
330
1F
100
AcDbEntity
  8
0
100
AcDbLine
 10
94.97043171152883
 20
137.7687767496251
 30
0.0
 11
97.9759539728718
 21
140.7742990109681
 31
0.0
  0
LINE
  5
740
330
1F
100
AcDbEntity
  8
0
100
AcDbLine
 10
98.97144563763226
 20
141.7697906757286
 30
0.0
 11
101.0090144754146
 21
143.8073595135109
 31
0.0
  0
LINE
  5
741
330
1F
100
AcDbEntity
  8
0
100
AcDbLine
 10
94.93239690518546
 20
137.7682186026846
 30
0.0
 11
97.97666043114823
 21
140.8124821286474
 31
0.0
  0
LINE
  5
742
330
1F
100
AcDbEntity
  8
0
100
AcDbLine
 10
98.97144563763226
 20
141.8072673351315
 30
0.0
 11
100.9715378111305
 21
143.8073595086296
 31
0.0
  0
LINE
  5
743
330
1F
100
AcDbEntity
  8
0
100
AcDbLine
 10
94.89462846017902
 20
137.7679268170811
 30
0.0
 11
97.97730228014247
 21
140.8506006370446
 31
0.0
  0
LINE
  5
744
330
1F
100
AcDbEntity
  8
0
100
AcDbLine
 10
98.97144563763226
 20
141.8447439945343
 30
0.0
 11
100.9340611468464
 21
143.8073595037484
 31
0.0
  0
LINE
  5
745
330
1F
100
AcDbEntity
  8
0
100
AcDbLine
 10
94.85751591427393
 20
137.7682909305789
 30
0.0
 11
97.97715195826294
 21
140.8879269745679
 31
0.0
  0
LINE
  5
746
330
1F
100
AcDbEntity
  8
0
100
AcDbLine
 10
98.97144563763226
 20
141.8822206539372
 30
0.0
 11
100.8965844825623
 21
143.8073594988672
 31
0.0
  0
LINE
  5
747
330
1F
100
AcDbEntity
  8
0
100
AcDbLine
 10
94.82046466213951
 20
137.7687163378474
 30
0.0
 11
97.97629409992656
 21
140.9245457756344
 31
0.0
  0
LINE
  5
748
330
1F
100
AcDbEntity
  8
0
100
AcDbLine
 10
98.97144563763226
 20
141.9196973133401
 30
0.0
 11
100.8591078182782
 21
143.8073594939861
 31
0.0
  0
LINE
  5
749
330
1F
100
AcDbEntity
  8
0
100
AcDbLine
 10
94.78353144988239
 20
137.7692597849931
 30
0.0
 11
97.97534620196248
 21
140.9610745370732
 31
0.0
  0
LINE
  5
74A
330
1F
100
AcDbEntity
  8
0
100
AcDbLine
 10
98.97144563763224
 20
141.957173972743
 30
0.0
 11
100.8216311539941
 21
143.8073594891049
 31
0.0
  0
LINE
  5
74B
330
1F
100
AcDbEntity
  8
0
100
AcDbLine
 10
94.74677915822323
 20
137.7699841527368
 30
0.0
 11
97.97431892707421
 21
140.9975239215878
 31
0.0
  0
LINE
  5
74C
330
1F
100
AcDbEntity
  8
0
100
AcDbLine
 10
98.97144563763224
 20
141.9946506321459
 30
0.0
 11
100.78415448971
 21
143.8073594842237
 31
0.0
  0
LINE
  5
74D
330
1F
100
AcDbEntity
  8
0
100
AcDbLine
 10
94.71024603036375
 20
137.7709276842803
 30
0.0
 11
97.97318414960183
 21
141.0338658035183
 31
0.0
  0
LINE
  5
74E
330
1F
100
AcDbEntity
  8
0
100
AcDbLine
 10
98.97144563763224
 20
142.0321272915487
 30
0.0
 11
100.746677825426
 21
143.8073594793425
 31
0.0
  0
LINE
  5
74F
330
1F
100
AcDbEntity
  8
0
100
AcDbLine
 10
94.67397522677838
 20
137.7721335400978
 30
0.0
 11
97.97181613096099
 21
141.0699744442804
 31
0.0
  0
LINE
  5
750
330
1F
100
AcDbEntity
  8
0
100
AcDbLine
 10
98.97144563763224
 20
142.0696039509516
 30
0.0
 11
100.7092011611419
 21
143.8073594744613
 31
0.0
  0
LINE
  5
751
330
1F
100
AcDbEntity
  8
0
100
AcDbLine
 10
94.63799292822644
 20
137.7736279009487
 30
0.0
 11
97.9703076336312
 21
141.1059426063535
 31
0.0
  0
LINE
  5
752
330
1F
100
AcDbEntity
  8
0
100
AcDbLine
 10
98.97144563763224
 20
142.1070806103545
 30
0.0
 11
100.6717244968578
 21
143.8073594695801
 31
0.0
  0
LINE
  5
753
330
1F
100
AcDbEntity
  8
0
100
AcDbLine
 10
94.60231188468097
 20
137.7754235168061
 30
0.0
 11
97.96854180396097
 21
141.1416534360861
 31
0.0
  0
LINE
  5
754
330
1F
100
AcDbEntity
  8
0
100
AcDbLine
 10
98.97144563763224
 20
142.1445572697574
 30
0.0
 11
100.6342478325737
 21
143.8073594646989
 31
0.0
  0
LINE
  5
755
330
1F
100
AcDbEntity
  8
0
100
AcDbLine
 10
94.56691190614107
 20
137.7775001976691
 30
0.0
 11
97.96647208338184
 21
141.1770603749099
 31
0.0
  0
LINE
  5
756
330
1F
100
AcDbEntity
  8
0
100
AcDbLine
 10
98.97144563763224
 20
142.1820339291603
 30
0.0
 11
100.5967711682896
 21
143.8073594598177
 31
0.0
  0
LINE
  5
757
330
1F
100
AcDbEntity
  8
0
100
AcDbLine
 10
94.53177266218378
 20
137.7798376131147
 30
0.0
 11
97.96422566717389
 21
141.2122906181048
 31
0.0
  0
LINE
  5
758
330
1F
100
AcDbEntity
  8
0
100
AcDbLine
 10
98.97144563763224
 20
142.2195105885632
 30
0.0
 11
100.5592945040055
 21
143.8073594549365
 31
0.0
  0
LINE
  5
759
330
1F
100
AcDbEntity
  8
0
100
AcDbLine
 10
94.49687520339873
 20
137.7824168137325
 30
0.0
 11
97.96153484985733
 21
141.2470764601911
 31
0.0
  0
LINE
  5
75A
330
1F
100
AcDbEntity
  8
0
100
AcDbLine
 10
98.97144563763224
 20
142.256987247966
 30
0.0
 11
100.5218178397215
 21
143.8073594500553
 31
0.0
  0
LINE
  5
75B
330
1F
100
AcDbEntity
  8
0
100
AcDbLine
 10
94.46220181304146
 20
137.7852200827782
 30
0.0
 11
97.95858866162912
 21
141.2816069313658
 31
0.0
  0
LINE
  5
75C
330
1F
100
AcDbEntity
  8
0
100
AcDbLine
 10
98.97144563763224
 20
142.2944639073689
 30
0.0
 11
100.4843411754374
 21
143.8073594451741
 31
0.0
  0
LINE
  5
75D
330
1F
100
AcDbEntity
  8
0
100
AcDbLine
 10
94.42773736054201
 20
137.7882322896816
 30
0.0
 11
97.9554215421669
 21
141.3159164713065
 31
0.0
  0
LINE
  5
75E
330
1F
100
AcDbEntity
  8
0
100
AcDbLine
 10
98.97144563763224
 20
142.3319405667718
 30
0.0
 11
100.4468645111533
 21
143.8073594402929
 31
0.0
  0
LINE
  5
75F
330
1F
100
AcDbEntity
  8
0
100
AcDbLine
 10
94.39353770755515
 20
137.7915092960976
 30
0.0
 11
97.95180596909596
 21
141.3497775576384
 31
0.0
  0
LINE
  5
760
330
1F
100
AcDbEntity
  8
0
100
AcDbLine
 10
98.97144563763224
 20
142.3694172261747
 30
0.0
 11
100.4093878468692
 21
143.8073594354117
 31
0.0
  0
LINE
  5
761
330
1F
100
AcDbEntity
  8
0
100
AcDbLine
 10
94.35947172307166
 20
137.794919971017
 30
0.0
 11
97.94800413760643
 21
141.3834523855518
 31
0.0
  0
LINE
  5
762
330
1F
100
AcDbEntity
  8
0
100
AcDbLine
 10
98.97144563763224
 20
142.4068938855776
 30
0.0
 11
100.3719111825852
 21
143.8073594305305
 31
0.0
  0
LINE
  5
763
330
1F
100
AcDbEntity
  8
0
100
AcDbLine
 10
94.32560643266632
 20
137.7985313400145
 30
0.0
 11
97.94391917345496
 21
141.4168440808032
 31
0.0
  0
LINE
  5
764
330
1F
100
AcDbEntity
  8
0
100
AcDbLine
 10
98.97144563763224
 20
142.4443705449805
 30
0.0
 11
100.3344345183011
 21
143.8073594256493
 31
0.0
  0
LINE
  5
765
330
1F
100
AcDbEntity
  8
0
100
AcDbLine
 10
94.29200959926517
 20
137.8024111660163
 30
0.0
 11
97.93949463575552
 21
141.4498962025066
 31
0.0
  0
LINE
  5
766
330
1F
100
AcDbEntity
  8
0
100
AcDbLine
 10
98.97144563763224
 20
142.4818472043834
 30
0.0
 11
100.296957854017
 21
143.8073594207681
 31
0.0
  0
LINE
  5
767
330
1F
100
AcDbEntity
  8
0
100
AcDbLine
 10
94.25853623867917
 20
137.8064144648332
 30
0.0
 11
97.93490648409806
 21
141.482784710252
 31
0.0
  0
LINE
  5
768
330
1F
100
AcDbEntity
  8
0
100
AcDbLine
 10
98.97144563763224
 20
142.5193238637862
 30
0.0
 11
100.2594811897329
 21
143.8073594158869
 31
0.0
  0
LINE
  5
769
330
1F
100
AcDbEntity
  8
0
100
AcDbLine
 10
94.22539754044645
 20
137.8107524260033
 30
0.0
 11
97.92994513357675
 21
141.5153000191336
 31
0.0
  0
LINE
  5
76A
330
1F
100
AcDbEntity
  8
0
100
AcDbLine
 10
98.97144563763224
 20
142.5568005231891
 30
0.0
 11
100.2220045254488
 21
143.8073594110057
 31
0.0
  0
LINE
  5
76B
330
1F
100
AcDbEntity
  8
0
100
AcDbLine
 10
94.19242134172933
 20
137.8152528866891
 30
0.0
 11
97.92475731049687
 21
141.5475888554566
 31
0.0
  0
LINE
  5
76C
330
1F
100
AcDbEntity
  8
0
100
AcDbLine
 10
98.97144563763224
 20
142.594277182592
 30
0.0
 11
100.1845278611648
 21
143.8073594061245
 31
0.0
  0
LINE
  5
76D
330
1F
100
AcDbEntity
  8
0
100
AcDbLine
 10
94.15966127583448
 20
137.8199694801971
 30
0.0
 11
97.91933651152964
 21
141.5796447158923
 31
0.0
  0
LINE
  5
76E
330
1F
100
AcDbEntity
  8
0
100
AcDbLine
 10
98.97144563763226
 20
142.6317538419949
 30
0.0
 11
100.1470511968807
 21
143.8073594012433
 31
0.0
  0
LINE
  5
76F
330
1F
100
AcDbEntity
  8
0
100
AcDbLine
 10
94.12720234082761
 20
137.8249872045932
 30
0.0
 11
97.91362773588456
 21
141.6114125996501
 31
0.0
  0
LINE
  5
770
330
1F
100
AcDbEntity
  8
0
100
AcDbLine
 10
98.97144563763226
 20
142.6692305013978
 30
0.0
 11
100.1095745325966
 21
143.8073593963621
 31
0.0
  0
LINE
  5
771
330
1F
100
AcDbEntity
  8
0
100
AcDbLine
 10
94.09487900213658
 20
137.830140525305
 30
0.0
 11
97.90770869252192
 21
141.6429702156903
 31
0.0
  0
LINE
  5
772
330
1F
100
AcDbEntity
  8
0
100
AcDbLine
 10
98.97144563763226
 20
142.7067071608007
 30
0.0
 11
100.0720978683125
 21
143.8073593914809
 31
0.0
  0
LINE
  5
773
330
1F
100
AcDbEntity
  8
0
100
AcDbLine
 10
94.0628595357453
 20
137.8355977183166
 30
0.0
 11
97.90146497843803
 21
141.6742031610093
 31
0.0
  0
LINE
  5
774
330
1F
100
AcDbEntity
  8
0
100
AcDbLine
 10
98.97144563763226
 20
142.7441838202035
 30
0.0
 11
100.0346212040284
 21
143.8073593865997
 31
0.0
  0
LINE
  5
775
330
1F
100
AcDbEntity
  8
0
100
AcDbLine
 10
94.03103377519025
 20
137.8412486171644
 30
0.0
 11
97.89503794783131
 21
141.7052527898055
 31
0.0
  0
LINE
  5
776
330
1F
100
AcDbEntity
  8
0
100
AcDbLine
 10
98.97144563763226
 20
142.7816604796064
 30
0.0
 11
99.99714453974434
 21
143.8073593817185
 31
0.0
  0
LINE
  5
777
330
1F
100
AcDbEntity
  8
0
100
AcDbLine
 10
93.99938139381905
 20
137.8470728951961
 30
0.0
 11
97.88826132734874
 21
141.7359528287258
 31
0.0
  0
LINE
  5
778
330
1F
100
AcDbEntity
  8
0
100
AcDbLine
 10
98.97144563763226
 20
142.8191371390093
 30
0.0
 11
99.95966787546026
 21
143.8073593768373
 31
0.0
  0
LINE
  5
779
330
1F
100
AcDbEntity
  8
0
100
AcDbLine
 10
93.96804088445738
 20
137.8532090452373
 30
0.0
 11
97.88131717909673
 21
141.7664853398767
 31
0.0
  0
LINE
  5
77A
330
1F
100
AcDbEntity
  8
0
100
AcDbLine
 10
98.97144563763226
 20
142.8566137984122
 30
0.0
 11
99.92219121117618
 21
143.8073593719561
 31
0.0
  0
LINE
  5
77B
330
1F
100
AcDbEntity
  8
0
100
AcDbLine
 10
93.93684318712457
 20
137.8594880073074
 30
0.0
 11
97.87401118986585
 21
141.7966560100487
 31
0.0
  0
LINE
  5
77C
330
1F
100
AcDbEntity
  8
0
100
AcDbLine
 10
98.97144563763226
 20
142.8940904578151
 30
0.0
 11
99.88471454689208
 21
143.8073593670749
 31
0.0
  0
LINE
  5
77D
330
1F
100
AcDbEntity
  8
0
100
AcDbLine
 10
93.90592222693557
 20
137.8660437065213
 30
0.0
 11
95.53951926825292
 21
139.4996407478386
 31
0.0
  0
LINE
  5
77E
330
1F
100
AcDbEntity
  8
0
100
AcDbLine
 10
95.7343641335006
 20
139.6944856130863
 30
0.0
 11
97.86654138538562
 21
141.8266628649713
 31
0.0
  0
LINE
  5
77F
330
1F
100
AcDbEntity
  8
0
100
AcDbLine
 10
98.97144563763226
 20
142.931567117218
 30
0.0
 11
99.84723788260801
 21
143.8073593621937
 31
0.0
  0
LINE
  5
780
330
1F
100
AcDbEntity
  8
0
100
AcDbLine
 10
93.87524514372907
 20
137.8728432827177
 30
0.0
 11
95.43573472400207
 21
139.4333328629907
 31
0.0
  0
LINE
  5
781
330
1F
100
AcDbEntity
  8
0
100
AcDbLine
 10
95.79506758580322
 20
139.7926657247918
 30
0.0
 11
97.85872099377549
 21
141.8563191327641
 31
0.0
  0
LINE
  5
782
330
1F
100
AcDbEntity
  8
0
100
AcDbLine
 10
98.97144563763226
 20
142.9690437766209
 30
0.0
 11
99.80976121832393
 21
143.8073593573125
 31
0.0
  0
LINE
  5
783
330
1F
100
AcDbEntity
  8
0
100
AcDbLine
 10
93.84471330544966
 20
137.8797881038412
 30
0.0
 11
95.36170847150703
 21
139.3967832698985
 31
0.0
  0
LINE
  5
784
330
1F
100
AcDbEntity
  8
0
100
AcDbLine
 10
95.82959414338217
 20
139.8646689417737
 30
0.0
 11
97.85073239496988
 21
141.8858071933614
 31
0.0
  0
LINE
  5
785
330
1F
100
AcDbEntity
  8
0
100
AcDbLine
 10
98.97144563763226
 20
143.0065204360237
 30
0.0
 11
99.77228455403986
 21
143.8073593524313
 31
0.0
  0
LINE
  5
786
330
1F
100
AcDbEntity
  8
0
100
AcDbLine
 10
93.81458285561133
 20
137.8871343134057
 30
0.0
 11
95.2979084601103
 21
139.3704599179047
 31
0.0
  0
LINE
  5
787
330
1F
100
AcDbEntity
  8
0
100
AcDbLine
 10
95.85544376670502
 20
139.9279952244994
 30
0.0
 11
97.84238988252966
 21
141.914941340324
 31
0.0
  0
LINE
  5
788
330
1F
100
AcDbEntity
  8
0
100
AcDbLine
 10
98.97144563763226
 20
143.0439970954266
 30
0.0
 11
99.73480788975576
 21
143.8073593475501
 31
0.0
  0
LINE
  5
789
330
1F
100
AcDbEntity
  8
0
100
AcDbLine
 10
93.78459416226886
 20
137.8946222794661
 30
0.0
 11
95.24066043526189
 21
139.3506885524592
 31
0.0
  0
LINE
  5
78A
330
1F
100
AcDbEntity
  8
0
100
AcDbLine
 10
95.87583652175393
 20
139.9858646389512
 30
0.0
 11
97.83390736943737
 21
141.9439354866346
 31
0.0
  0
LINE
  5
78B
330
1F
100
AcDbEntity
  8
0
100
AcDbLine
 10
98.97144563763226
 20
143.0814737548295
 30
0.0
 11
99.69733122547167
 21
143.8073593426689
 31
0.0
  0
LINE
  5
78C
330
1F
100
AcDbEntity
  8
0
100
AcDbLine
 10
93.75488283010877
 20
137.9023876067089
 30
0.0
 11
95.18863884181465
 21
139.3361436184148
 31
0.0
  0
LINE
  5
78D
330
1F
100
AcDbEntity
  8
0
100
AcDbLine
 10
95.8923960293817
 20
140.0399008059818
 30
0.0
 11
97.82507503446782
 21
141.972579811068
 31
0.0
  0
LINE
  5
78E
330
1F
100
AcDbEntity
  8
0
100
AcDbLine
 10
98.97144563763226
 20
143.1189504142324
 30
0.0
 11
99.65985456118759
 21
143.8073593377877
 31
0.0
  0
LINE
  5
78F
330
1F
100
AcDbEntity
  8
0
100
AcDbLine
 10
93.72545793148055
 20
137.9104393674836
 30
0.0
 11
95.1403937893576
 21
139.3253752253606
 31
0.0
  0
LINE
  5
790
330
1F
100
AcDbEntity
  8
0
100
AcDbLine
 10
95.9063916106414
 20
140.0913730466444
 30
0.0
 11
97.8161165955916
 21
142.0010980315946
 31
0.0
  0
LINE
  5
791
330
1F
100
AcDbEntity
  8
0
100
AcDbLine
 10
98.97144563763226
 20
143.1564270736353
 30
0.0
 11
99.62237789690352
 21
143.8073593329065
 31
0.0
  0
LINE
  5
792
330
1F
100
AcDbEntity
  8
0
100
AcDbLine
 10
93.69618008476887
 20
137.9186381801748
 30
0.0
 11
95.09429194103687
 21
139.3167500364428
 31
0.0
  0
LINE
  5
793
330
1F
100
AcDbEntity
  8
0
100
AcDbLine
 10
95.91837204772399
 20
140.1408301431299
 30
0.0
 11
97.8068218483974
 21
142.0292799438033
 31
0.0
  0
LINE
  5
794
330
1F
100
AcDbEntity
  8
0
100
AcDbLine
 10
98.97144563763226
 20
143.1939037330382
 30
0.0
 11
99.58490123261943
 21
143.8073593280253
 31
0.0
  0
LINE
  5
795
330
1F
100
AcDbEntity
  8
0
100
AcDbLine
 10
93.6672691605078
 20
137.9272039153166
 30
0.0
 11
95.04976688561351
 21
139.3097016404223
 31
0.0
  0
LINE
  5
796
330
1F
100
AcDbEntity
  8
0
100
AcDbLine
 10
95.92897131125095
 20
140.1889060660597
 30
0.0
 11
97.79740415583703
 21
142.0573389106458
 31
0.0
  0
LINE
  5
797
330
1F
100
AcDbEntity
  8
0
100
AcDbLine
 10
98.97144563763226
 20
143.2313803924411
 30
0.0
 11
99.54742456833536
 21
143.8073593231441
 31
0.0
  0
LINE
  5
798
330
1F
100
AcDbEntity
  8
0
100
AcDbLine
 10
93.63852490177624
 20
137.9359363159879
 30
0.0
 11
95.00692636991593
 21
139.3043377841276
 31
0.0
  0
LINE
  5
799
330
1F
100
AcDbEntity
  8
0
100
AcDbLine
 10
95.93824994242398
 20
140.2356613566357
 30
0.0
 11
97.78767164246213
 21
142.0850830566738
 31
0.0
  0
LINE
  5
79A
330
1F
100
AcDbEntity
  8
0
100
AcDbLine
 10
98.97144563763226
 20
143.2688570518439
 30
0.0
 11
99.50994790405127
 21
143.8073593182629
 31
0.0
  0
LINE
  5
79B
330
1F
100
AcDbEntity
  8
0
100
AcDbLine
 10
93.61000478383971
 20
137.9448928574543
 30
0.0
 11
94.9658926334489
 21
139.3007807070635
 31
0.0
  0
LINE
  5
79C
330
1F
100
AcDbEntity
  8
0
100
AcDbLine
 10
95.94627898040584
 20
140.2811670540204
 30
0.0
 11
97.77781015734483
 21
142.1126982309594
 31
0.0
  0
LINE
  5
79D
330
1F
100
AcDbEntity
  8
0
100
AcDbLine
 10
98.97144563763226
 20
143.3063337112468
 30
0.0
 11
99.47247123976719
 21
143.8073593133817
 31
0.0
  0
LINE
  5
79E
330
1F
100
AcDbEntity
  8
0
100
AcDbLine
 10
93.58177437680739
 20
137.9541391098248
 30
0.0
 11
94.92627485481128
 21
139.2986395878287
 31
0.0
  0
LINE
  5
79F
330
1F
100
AcDbEntity
  8
0
100
AcDbLine
 10
95.95311405574218
 20
140.3254787887596
 30
0.0
 11
97.76766324939949
 21
142.1400279824169
 31
0.0
  0
LINE
  5
7A0
330
1F
100
AcDbEntity
  8
0
100
AcDbLine
 10
98.97144563763226
 20
143.3438103706497
 30
0.0
 11
99.43499457548312
 21
143.8073593085006
 31
0.0
  0
LINE
  5
7A1
330
1F
100
AcDbEntity
  8
0
100
AcDbLine
 10
93.5536935342775
 20
137.9635349266978
 30
0.0
 11
94.88770760819976
 21
139.2975490006201
 31
0.0
  0
LINE
  5
7A2
330
1F
100
AcDbEntity
  8
0
100
AcDbLine
 10
95.95898114254433
 20
140.3688225349647
 30
0.0
 11
97.75737408757863
 21
142.167215479999
 31
0.0
  0
LINE
  5
7A3
330
1F
100
AcDbEntity
  8
0
100
AcDbLine
 10
98.97144563763226
 20
143.3812870300526
 30
0.0
 11
99.39751791119903
 21
143.8073593036194
 31
0.0
  0
LINE
  5
7A4
330
1F
100
AcDbEntity
  8
0
100
AcDbLine
 10
93.52593285023586
 20
137.9732509020591
 30
0.0
 11
94.84957258750565
 21
139.2968906393289
 31
0.0
  0
LINE
  5
7A5
330
1F
100
AcDbEntity
  8
0
100
AcDbLine
 10
95.96406373244278
 20
140.411381784266
 30
0.0
 11
97.74679317508385
 21
142.1941112269071
 31
0.0
  0
LINE
  5
7A6
330
1F
100
AcDbEntity
  8
0
100
AcDbLine
 10
98.97144563763224
 20
143.4187636894555
 30
0.0
 11
99.36004124691493
 21
143.8073592987382
 31
0.0
  0
LINE
  5
7A7
330
1F
100
AcDbEntity
  8
0
100
AcDbLine
 10
93.49838213326922
 20
137.9831768444953
 30
0.0
 11
94.81268520318768
 21
139.2974799144138
 31
0.0
  0
LINE
  5
7A8
330
1F
100
AcDbEntity
  8
0
100
AcDbLine
 10
95.96852860183958
 20
140.4533233130657
 30
0.0
 11
97.73607118100074
 21
142.2208658922268
 31
0.0
  0
LINE
  5
7A9
330
1F
100
AcDbEntity
  8
0
100
AcDbLine
 10
98.97144563763224
 20
143.4562403488583
 30
0.0
 11
99.32256458263087
 21
143.807359293857
 31
0.0
  0
LINE
  5
7AA
330
1F
100
AcDbEntity
  8
0
100
AcDbLine
 10
93.47101181214603
 20
137.993283182775
 30
0.0
 11
94.776339716164
 21
139.298611086793
 31
0.0
  0
LINE
  5
7AB
330
1F
100
AcDbEntity
  8
0
100
AcDbLine
 10
95.97251643781354
 20
140.4947878084425
 30
0.0
 11
97.72505064509312
 21
142.2473220157221
 31
0.0
  0
LINE
  5
7AC
330
1F
100
AcDbEntity
  8
0
100
AcDbLine
 10
98.97144563763224
 20
143.4937170082612
 30
0.0
 11
99.28508791834678
 21
143.8073592889758
 31
0.0
  0
LINE
  5
7AD
330
1F
100
AcDbEntity
  8
0
100
AcDbLine
 10
93.44400443714052
 20
138.0037524671724
 30
0.0
 11
94.74099849759335
 21
139.3007465276252
 31
0.0
  0
LINE
  5
7AE
330
1F
100
AcDbEntity
  8
0
100
AcDbLine
 10
95.97605509105026
 20
140.5358031210821
 30
0.0
 11
97.7138789131199
 21
142.2736269431518
 31
0.0
  0
LINE
  5
7AF
330
1F
100
AcDbEntity
  8
0
100
AcDbLine
 10
98.97144563763224
 20
143.5311936676641
 30
0.0
 11
99.24761125406268
 21
143.8073592840945
 31
0.0
  0
LINE
  5
7B0
330
1F
100
AcDbEntity
  8
0
100
AcDbLine
 10
93.41714008634642
 20
138.0143647757812
 30
0.0
 11
94.70676978625333
 21
139.3039944756881
 31
0.0
  0
LINE
  5
7B1
330
1F
100
AcDbEntity
  8
0
100
AcDbLine
 10
95.97915928258476
 20
140.5763839720195
 30
0.0
 11
97.70241036601263
 21
142.2996350554474
 31
0.0
  0
LINE
  5
7B2
330
1F
100
AcDbEntity
  8
0
100
AcDbLine
 10
98.97144563763224
 20
143.568670327067
 30
0.0
 11
99.2101345897786
 21
143.8073592792134
 31
0.0
  0
LINE
  5
7B3
330
1F
100
AcDbEntity
  8
0
100
AcDbLine
 10
93.39057431125913
 20
138.0252756600968
 30
0.0
 11
94.67382297262907
 21
139.3085243214667
 31
0.0
  0
LINE
  5
7B4
330
1F
100
AcDbEntity
  8
0
100
AcDbLine
 10
95.981815724152
 20
140.6165170729896
 30
0.0
 11
97.69077242125806
 21
142.3254737700957
 31
0.0
  0
LINE
  5
7B5
330
1F
100
AcDbEntity
  8
0
100
AcDbLine
 10
98.97144563763224
 20
143.6061469864699
 30
0.0
 11
99.17265792549453
 21
143.8073592743322
 31
0.0
  0
LINE
  5
7B6
330
1F
100
AcDbEntity
  8
0
100
AcDbLine
 10
93.36426721297602
 20
138.0364452212165
 30
0.0
 11
94.6417089767364
 21
139.3138869849769
 31
0.0
  0
LINE
  5
7B7
330
1F
100
AcDbEntity
  8
0
100
AcDbLine
 10
95.98401350987713
 20
140.6561915181177
 30
0.0
 11
97.67884870725777
 21
142.3510267154983
 31
0.0
  0
LINE
  5
7B8
330
1F
100
AcDbEntity
  8
0
100
AcDbLine
 10
98.97144563763224
 20
143.6436236458728
 30
0.0
 11
99.13518126121045
 21
143.807359269451
 31
0.0
  0
LINE
  5
7B9
330
1F
100
AcDbEntity
  8
0
100
AcDbLine
 10
93.33810937572257
 20
138.047764043366
 30
0.0
 11
94.61041236550219
 21
139.3200670331456
 31
0.0
  0
LINE
  5
7BA
330
1F
100
AcDbEntity
  8
0
100
AcDbLine
 10
95.98576133573872
 20
140.6954160033821
 30
0.0
 11
97.66672849219961
 21
142.376383159843
 31
0.0
  0
LINE
  5
7BB
330
1F
100
AcDbEntity
  8
0
100
AcDbLine
 10
98.97144563763224
 20
143.6811003052756
 30
0.0
 11
99.09770459692638
 21
143.8073592645698
 31
0.0
  0
LINE
  5
7BC
330
1F
100
AcDbEntity
  8
0
100
AcDbLine
 10
93.31234675940239
 20
138.0594780864487
 30
0.0
 11
94.57973084925018
 21
139.3268621762965
 31
0.0
  0
LINE
  5
7BD
330
1F
100
AcDbEntity
  8
0
100
AcDbLine
 10
95.98707528365921
 20
140.7342066107055
 30
0.0
 11
97.65434892200021
 21
142.4014802490465
 31
0.0
  0
LINE
  5
7BE
330
1F
100
AcDbEntity
  8
0
100
AcDbLine
 10
98.97144563763224
 20
143.7185769646785
 30
0.0
 11
99.06022793264229
 21
143.8073592596886
 31
0.0
  0
LINE
  5
7BF
330
1F
100
AcDbEntity
  8
0
100
AcDbLine
 10
93.2867364988368
 20
138.071344485286
 30
0.0
 11
94.5497337434299
 21
139.3343417298791
 31
0.0
  0
LINE
  5
7C0
330
1F
100
AcDbEntity
  8
0
100
AcDbLine
 10
95.9880514216622
 20
140.7726594081114
 30
0.0
 11
97.64174073080498
 21
142.4263487172542
 31
0.0
  0
LINE
  5
7C1
330
1F
100
AcDbEntity
  8
0
100
AcDbLine
 10
98.97144563763224
 20
143.7560536240814
 30
0.0
 11
99.0227512683582
 21
143.8073592548074
 31
0.0
  0
LINE
  5
7C2
330
1F
100
AcDbEntity
  8
0
100
AcDbLine
 10
93.26137738893891
 20
138.083462034791
 30
0.0
 11
94.52048212432815
 21
139.3425667701802
 31
0.0
  0
LINE
  5
7C3
330
1F
100
AcDbEntity
  8
0
100
AcDbLine
 10
95.98877428322477
 20
140.8108589290768
 30
0.0
 11
97.62889906249953
 21
142.4509837083516
 31
0.0
  0
LINE
  5
7C4
330
1F
100
AcDbEntity
  8
0
100
AcDbLine
 10
98.97144563763224
 20
143.7935302834843
 30
0.0
 11
98.98527460407414
 21
143.8073592499262
 31
0.0
  0
LINE
  5
7C5
330
1F
100
AcDbEntity
  8
0
100
AcDbLine
 10
93.23630852107352
 20
138.0958698263285
 30
0.0
 11
94.49201087198105
 21
139.351572177236
 31
0.0
  0
LINE
  5
7C6
330
1F
100
AcDbEntity
  8
0
100
AcDbLine
 10
95.9893232999936
 20
140.8488846052485
 30
0.0
 11
97.61581767802198
 21
142.4753789832769
 31
0.0
  0
LINE
  5
7C7
330
1F
100
AcDbEntity
  8
0
100
AcDbLine
 10
93.21138760190186
 20
138.1084255665597
 30
0.0
 11
94.46430926036889
 21
139.3613472250267
 31
0.0
  0
LINE
  5
7C8
330
1F
100
AcDbEntity
  8
0
100
AcDbLine
 10
95.98977444230285
 20
140.8868124069607
 30
0.0
 11
97.60253414394879
 21
142.4995721086066
 31
0.0
  0
LINE
  5
7C9
330
1F
100
AcDbEntity
  8
0
100
AcDbLine
 10
93.18681792784739
 20
138.1213325519081
 30
0.0
 11
94.43736495688485
 21
139.3718795809456
 31
0.0
  0
LINE
  5
7CA
330
1F
100
AcDbEntity
  8
0
100
AcDbLine
 10
95.98952827733785
 20
140.9240429013986
 30
0.0
 11
97.58899366394104
 21
142.5235082880018
 31
0.0
  0
LINE
  5
7CB
330
1F
100
AcDbEntity
  8
0
100
AcDbLine
 10
93.16242562254772
 20
138.1344169060113
 30
0.0
 11
94.4111180937411
 21
139.3831093772047
 31
0.0
  0
LINE
  5
7CC
330
1F
100
AcDbEntity
  8
0
100
AcDbLine
 10
95.98890777632663
 20
140.9608990597902
 30
0.0
 11
97.57528651546225
 21
142.5472777989258
 31
0.0
  0
LINE
  5
7CD
330
1F
100
AcDbEntity
  8
0
100
AcDbLine
 10
93.13823974168288
 20
138.1477076845493
 30
0.0
 11
94.38551057814047
 21
139.3949785210069
 31
0.0
  0
LINE
  5
7CE
330
1F
100
AcDbEntity
  8
0
100
AcDbLine
 10
95.98812431595506
 20
140.9975922588215
 30
0.0
 11
97.56129987790585
 21
142.5707678207723
 31
0.0
  0
LINE
  5
7CF
330
1F
100
AcDbEntity
  8
0
100
AcDbLine
 10
93.11436231107878
 20
138.1613069133481
 30
0.0
 11
94.36050178335111
 21
139.4074463856205
 31
0.0
  0
LINE
  5
7D0
330
1F
100
AcDbEntity
  8
0
100
AcDbLine
 10
95.98708591850497
 20
141.0340305207743
 30
0.0
 11
97.54718535317585
 21
142.5941299554452
 31
0.0
  0
LINE
  5
7D1
330
1F
100
AcDbEntity
  8
0
100
AcDbLine
 10
93.09061427636716
 20
138.1750355380394
 30
0.0
 11
94.3360532241982
 21
139.4204744858704
 31
0.0
  0
LINE
  5
7D2
330
1F
100
AcDbEntity
  8
0
100
AcDbLine
 10
95.9857067662185
 20
141.0701280278907
 30
0.0
 11
97.53276441458014
 21
142.6171856762524
 31
0.0
  0
LINE
  5
7D3
330
1F
100
AcDbEntity
  8
0
100
AcDbLine
 10
93.06717832532301
 20
138.1890762463981
 30
0.0
 11
94.31213379583643
 21
139.4340317169116
 31
0.0
  0
LINE
  5
7D4
330
1F
100
AcDbEntity
  8
0
100
AcDbLine
 10
95.98392533163148
 20
141.1058232527066
 30
0.0
 11
97.51825699986958
 21
142.6401549209447
 31
0.0
  0
LINE
  5
7D5
330
1F
100
AcDbEntity
  8
0
100
AcDbLine
 10
93.04393153838348
 20
138.2033061188615
 30
0.0
 11
94.28874417343884
 21
139.4481187539168
 31
0.0
  0
LINE
  5
7D6
330
1F
100
AcDbEntity
  8
0
100
AcDbLine
 10
95.98168815585413
 20
141.1410627363321
 30
0.0
 11
97.50341290513448
 21
142.6627874856125
 31
0.0
  0
LINE
  5
7D7
330
1F
100
AcDbEntity
  8
0
100
AcDbLine
 10
93.0208638247063
 20
138.2177150645872
 30
0.0
 11
94.26592464845645
 21
139.4627758883373
 31
0.0
  0
LINE
  5
7D8
330
1F
100
AcDbEntity
  8
0
100
AcDbLine
 10
95.97898563209252
 20
141.1758368719734
 30
0.0
 11
97.4885204021444
 21
142.6853716420253
 31
0.0
  0
LINE
  5
7D9
330
1F
100
AcDbEntity
  8
0
100
AcDbLine
 10
92.99811192277802
 20
138.2324398220618
 30
0.0
 11
94.24372377237019
 21
139.478051671654
 31
0.0
  0
LINE
  5
7DA
330
1F
100
AcDbEntity
  8
0
100
AcDbLine
 10
95.97580818697696
 20
141.2101360862607
 30
0.0
 11
97.47325993214939
 21
142.7075878314332
 31
0.0
  0
LINE
  5
7DB
330
1F
100
AcDbEntity
  8
0
100
AcDbLine
 10
92.97548445403473
 20
138.2472890127214
 30
0.0
 11
94.22218193567225
 21
139.4939864943589
 31
0.0
  0
LINE
  5
7DC
330
1F
100
AcDbEntity
  8
0
100
AcDbLine
 10
95.972148075572
 20
141.2439526342586
 30
0.0
 11
97.45799142995472
 21
142.7297959886414
 31
0.0
  0
LINE
  5
7DD
330
1F
100
AcDbEntity
  8
0
100
AcDbLine
 10
92.95315121415125
 20
138.2624324322408
 30
0.0
 11
94.20127211188867
 21
139.5105533299782
 31
0.0
  0
LINE
  5
7DE
330
1F
100
AcDbEntity
  8
0
100
AcDbLine
 10
95.96797971472336
 20
141.2772609328129
 30
0.0
 11
97.44231869468115
 21
142.7515999127707
 31
0.0
  0
LINE
  5
7DF
330
1F
100
AcDbEntity
  8
0
100
AcDbLine
 10
92.9310138917592
 20
138.2777717692516
 30
0.0
 11
94.1809167034888
 21
139.5276745809812
 31
0.0
  0
LINE
  5
7E0
330
1F
100
AcDbEntity
  8
0
100
AcDbLine
 10
95.96338796713196
 20
141.3101458446244
 30
0.0
 11
97.42664595940758
 21
142.7734038369
 31
0.0
  0
LINE
  5
7E1
330
1F
100
AcDbEntity
  8
0
100
AcDbLine
 10
92.90904974190074
 20
138.2932842787961
 30
0.0
 11
94.16102469042546
 21
139.5452592273208
 31
0.0
  0
LINE
  5
7E2
330
1F
100
AcDbEntity
  8
0
100
AcDbLine
 10
95.95839363133345
 20
141.3426281682288
 30
0.0
 11
97.4105992767261
 21
142.7948338136214
 31
0.0
  0
LINE
  5
7E3
330
1F
100
AcDbEntity
  8
0
100
AcDbLine
 10
92.8874051761035
 20
138.3091163724017
 30
0.0
 11
94.14152078530778
 21
139.563231981606
 31
0.0
  0
LINE
  5
7E4
330
1F
100
AcDbEntity
  8
0
100
AcDbLine
 10
95.95302609603907
 20
141.3747372923373
 30
0.0
 11
97.39451781865004
 21
142.8162290149482
 31
0.0
  0
LINE
  5
7E5
330
1F
100
AcDbEntity
  8
0
100
AcDbLine
 10
92.86587964740511
 20
138.3250675031062
 30
0.0
 11
94.12237892835822
 21
139.5815667840593
 31
0.0
  0
LINE
  5
7E6
330
1F
100
AcDbEntity
  8
0
100
AcDbLine
 10
95.94723153553463
 20
141.4064193912357
 30
0.0
 11
97.37811037443498
 21
142.8372982301361
 31
0.0
  0
LINE
  5
7E7
330
1F
100
AcDbEntity
  8
0
100
AcDbLine
 10
92.84467647328566
 20
138.3413409883896
 30
0.0
 11
94.10365278361779
 21
139.6003172987218
 31
0.0
  0
LINE
  5
7E8
330
1F
100
AcDbEntity
  8
0
100
AcDbLine
 10
95.9411370296518
 20
141.4378015447558
 30
0.0
 11
97.36162318534456
 21
142.8582877004485
 31
0.0
  0
LINE
  5
7E9
330
1F
100
AcDbEntity
  8
0
100
AcDbLine
 10
92.82365781478059
 20
138.3577989892874
 30
0.0
 11
94.08541036769039
 21
139.6195515421973
 31
0.0
  0
LINE
  5
7EA
330
1F
100
AcDbEntity
  8
0
100
AcDbLine
 10
95.93467682810852
 20
141.4688180026154
 30
0.0
 11
97.34485749940517
 21
142.878998673912
 31
0.0
  0
LINE
  5
7EB
330
1F
100
AcDbEntity
  8
0
100
AcDbLine
 10
92.80284751951987
 20
138.3744653534296
 30
0.0
 11
94.06772248417536
 21
139.6393403180851
 31
0.0
  0
LINE
  5
7EC
330
1F
100
AcDbEntity
  8
0
100
AcDbLine
 10
95.92780418577895
 20
141.4994220196887
 30
0.0
 11
97.3279643293725
 21
142.8995821632822
 31
0.0
  0
LINE
  5
7ED
330
1F
100
AcDbEntity
  8
0
100
AcDbLine
 10
92.7823442707484
 20
138.391438764061
 30
0.0
 11
94.05061953647774
 21
139.6597140297904
 31
0.0
  0
LINE
  5
7EE
330
1F
100
AcDbEntity
  8
0
100
AcDbLine
 10
95.92047051058152
 20
141.5295650038941
 30
0.0
 11
97.31084420661165
 21
142.9199386999243
 31
0.0
  0
LINE
  5
7EF
330
1F
100
AcDbEntity
  8
0
100
AcDbLine
 10
92.76195501473546
 20
138.408526167451
 30
0.0
 11
94.03413854978886
 21
139.6807097025044
 31
0.0
  0
LINE
  5
7F0
330
1F
100
AcDbEntity
  8
0
100
AcDbLine
 10
95.91260440205056
 20
141.5591755547661
 30
0.0
 11
97.29353849311084
 21
142.9401096458264
 31
0.0
  0
LINE
  5
7F1
330
1F
100
AcDbEntity
  8
0
100
AcDbLine
 10
92.74191955608923
 20
138.4259673682076
 30
0.0
 11
94.01834604260358
 21
139.702393854722
 31
0.0
  0
LINE
  5
7F2
330
1F
100
AcDbEntity
  8
0
100
AcDbLine
 10
95.90408885840093
 20
141.5881366705193
 30
0.0
 11
97.27606056361438
 21
142.9601083757328
 31
0.0
  0
LINE
  5
7F3
330
1F
100
AcDbEntity
  8
0
100
AcDbLine
 10
92.72200787171084
 20
138.4435323432321
 30
0.0
 11
94.00323591086192
 21
139.7247603823832
 31
0.0
  0
LINE
  5
7F4
330
1F
100
AcDbEntity
  8
0
100
AcDbLine
 10
95.89504337489244
 20
141.6165678464137
 30
0.0
 11
97.25833498444234
 21
142.9798594559636
 31
0.0
  0
LINE
  5
7F5
330
1F
100
AcDbEntity
  8
0
100
AcDbLine
 10
92.70232480956696
 20
138.4613259404911
 30
0.0
 11
93.98882416815857
 21
139.7478252990827
 31
0.0
  0
LINE
  5
7F6
330
1F
100
AcDbEntity
  8
0
100
AcDbLine
 10
95.88551340183564
 20
141.6445145327598
 30
0.0
 11
97.24049511205806
 21
142.9994962429822
 31
0.0
  0
LINE
  5
7F7
330
1F
100
AcDbEntity
  8
0
100
AcDbLine
 10
92.68285019769517
 20
138.4793279880222
 30
0.0
 11
93.97504577142593
 21
139.771523561753
 31
0.0
  0
LINE
  5
7F8
330
1F
100
AcDbEntity
  8
0
100
AcDbLine
 10
95.87553890994664
 20
141.6720167002737
 30
0.0
 11
97.22234174650703
 21
143.0188195368341
 31
0.0
  0
LINE
  5
7F9
330
1F
100
AcDbEntity
  8
0
100
AcDbLine
 10
92.66349457177996
 20
138.4974490215099
 30
0.0
 11
93.96185851954543
 21
139.7958129692753
 31
0.0
  0
LINE
  5
7FA
330
1F
100
AcDbEntity
  8
0
100
AcDbLine
 10
95.86515319169652
 20
141.6991076414265
 30
0.0
 11
97.20413505510689
 21
143.0380895048368
 31
0.0
  0
LINE
  5
7FB
330
1F
100
AcDbEntity
  8
0
100
AcDbLine
 10
92.6444244274347
 20
138.5158555365675
 30
0.0
 11
93.949210014459
 21
139.8206411235918
 31
0.0
  0
LINE
  5
7FC
330
1F
100
AcDbEntity
  8
0
100
AcDbLine
 10
95.85434211419027
 20
141.7257732233231
 30
0.0
 11
97.18554536300772
 21
143.0569764721405
 31
0.0
  0
LINE
  5
7FD
330
1F
100
AcDbEntity
  8
0
100
AcDbLine
 10
92.62543646094569
 20
138.5343442294814
 30
0.0
 11
93.93705723889776
 21
139.8459650074334
 31
0.0
  0
LINE
  5
7FE
330
1F
100
AcDbEntity
  8
0
100
AcDbLine
 10
95.84306709639236
 20
141.7519748649281
 30
0.0
 11
97.16695567090855
 21
143.0758634394442
 31
0.0
  0
LINE
  5
7FF
330
1F
100
AcDbEntity
  8
0
100
AcDbLine
 10
92.60670512191244
 20
138.553089549851
 30
0.0
 11
93.92533766219674
 21
139.8717220901353
 31
0.0
  0
LINE
  5
800
330
1F
100
AcDbEntity
  8
0
100
AcDbLine
 10
95.83118526726679
 20
141.7775696952054
 30
0.0
 11
97.147932752499
 21
143.0943171804376
 31
0.0
  0
LINE
  5
801
330
1F
100
AcDbEntity
  8
0
100
AcDbLine
 10
92.58811732199267
 20
138.5719784093341
 30
0.0
 11
93.91408025413932
 21
139.8979413414808
 31
0.0
  0
LINE
  5
802
330
1F
100
AcDbEntity
  8
0
100
AcDbLine
 10
95.81872297552772
 20
141.8025840628692
 30
0.0
 11
97.12889934785605
 21
143.1127604351975
 31
0.0
  0
LINE
  5
803
330
1F
100
AcDbEntity
  8
0
100
AcDbLine
 10
92.56970802277031
 20
138.5910457695147
 30
0.0
 11
93.90339712170427
 21
139.9247348684486
 31
0.0
  0
LINE
  5
804
330
1F
100
AcDbEntity
  8
0
100
AcDbLine
 10
95.80566950941665
 20
141.827007256161
 30
0.0
 11
97.1095025046601
 21
143.1308402514044
 31
0.0
  0
LINE
  5
805
330
1F
100
AcDbEntity
  8
0
100
AcDbLine
 10
92.55153263777103
 20
138.6103470439183
 30
0.0
 11
93.89322063530398
 21
139.9520350414512
 31
0.0
  0
LINE
  5
806
330
1F
100
AcDbEntity
  8
0
100
AcDbLine
 10
95.7920108080199
 20
141.8508252141671
 30
0.0
 11
97.09002762388216
 21
143.1488420300294
 31
0.0
  0
LINE
  5
807
330
1F
100
AcDbEntity
  8
0
100
AcDbLine
 10
92.53345347703547
 20
138.6297445425856
 30
0.0
 11
93.88358829970093
 21
139.979879365251
 31
0.0
  0
LINE
  5
808
330
1F
100
AcDbEntity
  8
0
100
AcDbLine
 10
95.77779688349678
 20
141.8740879490469
 30
0.0
 11
97.07025963055484
 21
143.166550696105
 31
0.0
  0
LINE
  5
809
330
1F
100
AcDbEntity
  8
0
100
AcDbLine
 10
92.51570561506401
 20
138.649473340017
 30
0.0
 11
93.87443725364403
 21
140.008204978597
 31
0.0
  0
LINE
  5
80A
330
1F
100
AcDbEntity
  8
0
100
AcDbLine
 10
95.76307231651158
 20
141.8968400414646
 30
0.0
 11
97.0503481823479
 21
143.1841159073009
 31
0.0
  0
LINE
  5
80B
330
1F
100
AcDbEntity
  8
0
100
AcDbLine
 10
92.49803632270381
 20
138.6692807070597
 30
0.0
 11
93.86575291586115
 21
140.0369973002171
 31
0.0
  0
LINE
  5
80C
330
1F
100
AcDbEntity
  8
0
100
AcDbLine
 10
95.74787690247227
 20
141.9191212868282
 30
0.0
 11
97.03021106654359
 21
143.2014554508995
 31
0.0
  0
LINE
  5
80D
330
1F
100
AcDbEntity
  8
0
100
AcDbLine
 10
92.48064410325752
 20
138.6893651470163
 30
0.0
 11
93.85750101725078
 21
140.0662220610096
 31
0.0
  0
LINE
  5
80E
330
1F
100
AcDbEntity
  8
0
100
AcDbLine
 10
95.73222266137171
 20
141.9409437051305
 30
0.0
 11
97.0098672945122
 21
143.218588338271
 31
0.0
  0
LINE
  5
80F
330
1F
100
AcDbEntity
  8
0
100
AcDbLine
 10
92.46340066462105
 20
138.7095983677827
 30
0.0
 11
93.84970740305421
 21
140.0959051062159
 31
0.0
  0
LINE
  5
810
330
1F
100
AcDbEntity
  8
0
100
AcDbLine
 10
95.7160640316976
 20
141.9622617348593
 30
0.0
 11
96.98936227241639
 21
143.235559975578
 31
0.0
  0
LINE
  5
811
330
1F
100
AcDbEntity
  8
0
100
AcDbLine
 10
92.44635528359647
 20
138.730029646161
 30
0.0
 11
93.84224320597272
 21
140.1259175685373
 31
0.0
  0
LINE
  5
812
330
1F
100
AcDbEntity
  8
0
100
AcDbLine
 10
95.69940793127653
 20
141.9830822938411
 30
0.0
 11
96.96858976464816
 21
143.2522641272127
 31
0.0
  0
LINE
  5
813
330
1F
100
AcDbEntity
  8
0
100
AcDbLine
 10
92.42953984195353
 20
138.750690863921
 30
0.0
 11
93.83509786001964
 21
140.1562488819871
 31
0.0
  0
LINE
  5
814
330
1F
100
AcDbEntity
  8
0
100
AcDbLine
 10
95.68224522724253
 20
142.0033962492099
 30
0.0
 11
96.9477163933727
 21
143.2688674153401
 31
0.0
  0
LINE
  5
815
330
1F
100
AcDbEntity
  8
0
100
AcDbLine
 10
92.41284235225108
 20
138.7714700336214
 30
0.0
 11
93.82830220894779
 21
140.1869298903181
 31
0.0
  0
LINE
  5
816
330
1F
100
AcDbEntity
  8
0
100
AcDbLine
 10
95.66456470398509
 20
142.0231923853554
 30
0.0
 11
96.92651445117058
 21
143.2851421325409
 31
0.0
  0
LINE
  5
817
330
1F
100
AcDbEntity
  8
0
100
AcDbLine
 10
92.39646037826165
 20
138.7925647190348
 30
0.0
 11
93.82189675411975
 21
140.2180010948929
 31
0.0
  0
LINE
  5
818
330
1F
100
AcDbEntity
  8
0
100
AcDbLine
 10
95.64634811556576
 20
142.0424524563389
 30
0.0
 11
96.90527922904484
 21
143.301383569818
 31
0.0
  0
LINE
  5
819
330
1F
100
AcDbEntity
  8
0
100
AcDbLine
 10
92.38014872287847
 20
138.8137297230546
 30
0.0
 11
93.81607051262165
 21
140.2496515127977
 31
0.0
  0
LINE
  5
81A
330
1F
100
AcDbEntity
  8
0
100
AcDbLine
 10
95.6275962465321
 20
142.0611772467082
 30
0.0
 11
96.88364112480257
 21
143.3172221249786
 31
0.0
  0
LINE
  5
81B
330
1F
100
AcDbEntity
  8
0
100
AcDbLine
 10
92.36415528692783
 20
138.8352129465068
 30
0.0
 11
93.81074813395138
 21
140.2818057935303
 31
0.0
  0
LINE
  5
81C
330
1F
100
AcDbEntity
  8
0
100
AcDbLine
 10
95.60830663840325
 20
142.0793642979822
 30
0.0
 11
96.86200302056035
 21
143.3330606801393
 31
0.0
  0
LINE
  5
81D
330
1F
100
AcDbEntity
  8
0
100
AcDbLine
 10
92.34826606366377
 20
138.8568003826456
 30
0.0
 11
93.80584938419884
 21
140.3143837031807
 31
0.0
  0
LINE
  5
81E
330
1F
100
AcDbEntity
  8
0
100
AcDbLine
 10
95.58847899915554
 20
142.0970133181374
 30
0.0
 11
96.83995548816193
 21
143.3484898071438
 31
0.0
  0
LINE
  5
81F
330
1F
100
AcDbEntity
  8
0
100
AcDbLine
 10
92.33261973836576
 20
138.8786307167505
 30
0.0
 11
93.80136757837207
 21
140.3473785567568
 31
0.0
  0
LINE
  5
820
330
1F
100
AcDbEntity
  8
0
100
AcDbLine
 10
95.56810949219147
 20
142.1141204705762
 30
0.0
 11
96.81787468108311
 21
143.3638856594678
 31
0.0
  0
LINE
  5
821
330
1F
100
AcDbEntity
  8
0
100
AcDbLine
 10
92.31714794959349
 20
138.9006355873811
 30
0.0
 11
93.79734864111423
 21
140.3808362789019
 31
0.0
  0
LINE
  5
822
330
1F
100
AcDbEntity
  8
0
100
AcDbLine
 10
95.54721973039041
 20
142.130707368178
 30
0.0
 11
96.79544204969649
 21
143.3789296874841
 31
0.0
  0
LINE
  5
823
330
1F
100
AcDbEntity
  8
0
100
AcDbLine
 10
92.30184412161537
 20
138.9228084188059
 30
0.0
 11
93.79366470050876
 21
140.4146289976993
 31
0.0
  0
LINE
  5
824
330
1F
100
AcDbEntity
  8
0
100
AcDbLine
 10
95.52582981025658
 20
142.1467941074471
 30
0.0
 11
96.77291116563654
 21
143.393875462827
 31
0.0
  0
LINE
  5
825
330
1F
100
AcDbEntity
  8
0
100
AcDbLine
 10
92.28678803415613
 20
138.9452289907495
 30
0.0
 11
93.79021530248474
 21
140.4486562590781
 31
0.0
  0
LINE
  5
826
330
1F
100
AcDbEntity
  8
0
100
AcDbLine
 10
95.50395805073897
 20
142.1623990073324
 30
0.0
 11
96.75008324216293
 21
143.4085241987563
 31
0.0
  0
LINE
  5
827
330
1F
100
AcDbEntity
  8
0
100
AcDbLine
 10
92.27182612767591
 20
138.9677437436722
 30
0.0
 11
93.7870312107428
 21
140.4829488267391
 31
0.0
  0
LINE
  5
828
330
1F
100
AcDbEntity
  8
0
100
AcDbLine
 10
95.48161513113187
 20
142.1775327471281
 30
0.0
 11
96.72709403426305
 21
143.4230116502593
 31
0.0
  0
LINE
  5
829
330
1F
100
AcDbEntity
  8
0
100
AcDbLine
 10
92.2571679761875
 20
138.9905622515867
 30
0.0
 11
93.78412364028878
 21
140.5175179156879
 31
0.0
  0
LINE
  5
82A
330
1F
100
AcDbEntity
  8
0
100
AcDbLine
 10
95.4587863169514
 20
142.1921805923506
 30
0.0
 11
96.70385864429691
 21
143.437252919696
 31
0.0
  0
LINE
  5
82B
330
1F
100
AcDbEntity
  8
0
100
AcDbLine
 10
92.24256994612949
 20
139.0134408809315
 30
0.0
 11
93.78152811429895
 21
140.552399049101
 31
0.0
  0
LINE
  5
82C
330
1F
100
AcDbEntity
  8
0
100
AcDbLine
 10
95.43544975917798
 20
142.20632069398
 30
0.0
 11
96.68040074783002
 21
143.451271682632
 31
0.0
  0
LINE
  5
82D
330
1F
100
AcDbEntity
  8
0
100
AcDbLine
 10
92.22827602064673
 20
139.0366236148517
 30
0.0
 11
93.77928333793973
 21
140.5876309321446
 31
0.0
  0
LINE
  5
82E
330
1F
100
AcDbEntity
  8
0
100
AcDbLine
 10
95.41158129369407
 20
142.219928887899
 30
0.0
 11
96.65676390009912
 21
143.465111494304
 31
0.0
  0
LINE
  5
82F
330
1F
100
AcDbEntity
  8
0
100
AcDbLine
 10
92.21406670232625
 20
139.059890955934
 30
0.0
 11
93.77743134123986
 21
140.6232555948476
 31
0.0
  0
LINE
  5
830
330
1F
100
AcDbEntity
  8
0
100
AcDbLine
 10
95.38714382816372
 20
142.2329680817715
 30
0.0
 11
96.63283619570838
 21
143.4786604493162
 31
0.0
  0
LINE
  5
831
330
1F
100
AcDbEntity
  8
0
100
AcDbLine
 10
92.20009352283813
 20
139.0833944358488
 30
0.0
 11
93.77597031675128
 21
140.659271229762
 31
0.0
  0
LINE
  5
832
330
1F
100
AcDbEntity
  8
0
100
AcDbLine
 10
95.36211120842914
 20
142.2454121214398
 30
0.0
 11
96.60879233238983
 21
143.4920932454005
 31
0.0
  0
LINE
  5
833
330
1F
100
AcDbEntity
  8
0
100
AcDbLine
 10
92.18626771994147
 20
139.107045292355
 30
0.0
 11
93.7749083038814
 21
140.695685876295
 31
0.0
  0
LINE
  5
834
330
1F
100
AcDbEntity
  8
0
100
AcDbLine
 10
95.3364467568903
 20
142.2572243293039
 30
0.0
 11
96.58439945070795
 21
143.5051770231215
 31
0.0
  0
LINE
  5
835
330
1F
100
AcDbEntity
  8
0
100
AcDbLine
 10
92.17261680678452
 20
139.130871038601
 30
0.0
 11
93.77412168989984
 21
140.7323759217163
 31
0.0
  0
LINE
  5
836
330
1F
100
AcDbEntity
  8
0
100
AcDbLine
 10
95.31010355685743
 20
142.2683577886739
 30
0.0
 11
96.55994549740403
 21
143.5181997292205
 31
0.0
  0
LINE
  5
837
330
1F
100
AcDbEntity
  8
0
100
AcDbLine
 10
92.15918293910245
 20
139.1549138303218
 30
0.0
 11
93.77353120137921
 21
140.7692620925986
 31
0.0
  0
LINE
  5
838
330
1F
100
AcDbEntity
  8
0
100
AcDbLine
 10
95.28303889379019
 20
142.2787697850095
 30
0.0
 11
96.5350916271818
 21
143.5308225184011
 31
0.0
  0
LINE
  5
839
330
1F
100
AcDbEntity
  8
0
100
AcDbLine
 10
92.14588353128075
 20
139.179091081903
 30
0.0
 11
93.77305761874007
 21
140.8062651693623
 31
0.0
  0
LINE
  5
83A
330
1F
100
AcDbEntity
  8
0
100
AcDbLine
 10
95.25529302467093
 20
142.2885005752931
 30
0.0
 11
96.51022403046908
 21
143.5434315810913
 31
0.0
  0
LINE
  5
83B
330
1F
100
AcDbEntity
  8
0
100
AcDbLine
 10
92.13288721856365
 20
139.2035714285888
 30
0.0
 11
93.77312832182987
 21
140.843812531855
 31
0.0
  0
LINE
  5
83C
330
1F
100
AcDbEntity
  8
0
100
AcDbLine
 10
95.2269264500103
 20
142.2976106600354
 30
0.0
 11
96.48491291609818
 21
143.5555971261233
 31
0.0
  0
LINE
  5
83D
330
1F
100
AcDbEntity
  8
0
100
AcDbLine
 10
92.11997309396138
 20
139.2281339633894
 30
0.0
 11
93.77363791824779
 21
140.8817987876758
 31
0.0
  0
LINE
  5
83E
330
1F
100
AcDbEntity
  8
0
100
AcDbLine
 10
95.19799270492638
 20
142.3061535743544
 30
0.0
 11
96.45960180172729
 21
143.5677626711553
 31
0.0
  0
LINE
  5
83F
330
1F
100
AcDbEntity
  8
0
100
AcDbLine
 10
92.10746545266615
 20
139.253102981497
 30
0.0
 11
93.77429097023278
 21
140.9199284990637
 31
0.0
  0
LINE
  5
840
330
1F
100
AcDbEntity
  8
0
100
AcDbLine
 10
95.16855837830168
 20
142.3141959071326
 30
0.0
 11
96.43385548115238
 21
143.5794930099833
 31
0.0
  0
LINE
  5
841
330
1F
100
AcDbEntity
  8
0
100
AcDbLine
 10
92.09504355090412
 20
139.2781577391379
 30
0.0
 11
93.77518289974122
 21
140.958297087975
 31
0.0
  0
LINE
  5
842
330
1F
100
AcDbEntity
  8
0
100
AcDbLine
 10
95.13855164868365
 20
142.3216658369174
 30
0.0
 11
96.40808292029632
 21
143.5911971085301
 31
0.0
  0
LINE
  5
843
330
1F
100
AcDbEntity
  8
0
100
AcDbLine
 10
92.08300274107087
 20
139.3035935887075
 30
0.0
 11
93.77641639210948
 21
140.9970072397461
 31
0.0
  0
LINE
  5
844
330
1F
100
AcDbEntity
  8
0
100
AcDbLine
 10
95.10786895753571
 20
142.3284598051723
 30
0.0
 11
96.38193676513963
 21
143.6025276127763
 31
0.0
  0
LINE
  5
845
330
1F
100
AcDbEntity
  8
0
100
AcDbLine
 10
92.0711091235112
 20
139.3291766305507
 30
0.0
 11
93.77809478687088
 21
141.0361622939104
 31
0.0
  0
LINE
  5
846
330
1F
100
AcDbEntity
  8
0
100
AcDbLine
 10
95.07640961815062
 20
142.3344771251901
 30
0.0
 11
96.35569882126802
 21
143.6137663283075
 31
0.0
  0
LINE
  5
847
330
1F
100
AcDbEntity
  8
0
100
AcDbLine
 10
92.05951647527047
 20
139.3550606417129
 30
0.0
 11
93.78032116821225
 21
141.0758653346547
 31
0.0
  0
LINE
  5
848
330
1F
100
AcDbEntity
  8
0
100
AcDbLine
 10
95.04406927725674
 20
142.3396134436991
 30
0.0
 11
96.32914680599029
 21
143.6246909724327
 31
0.0
  0
LINE
  5
849
330
1F
100
AcDbEntity
  8
0
100
AcDbLine
 10
92.04814396271027
 20
139.3811647885556
 30
0.0
 11
93.78307995115318
 21
141.1161007769985
 31
0.0
  0
LINE
  5
84A
330
1F
100
AcDbEntity
  8
0
100
AcDbLine
 10
95.01091070243774
 20
142.343931528283
 30
0.0
 11
96.30244721399788
 21
143.6354680398432
 31
0.0
  0
LINE
  5
84B
330
1F
100
AcDbEntity
  8
0
100
AcDbLine
 10
92.03698071190432
 20
139.4074781971525
 30
0.0
 11
93.78634818172196
 21
141.1568456669701
 31
0.0
  0
LINE
  5
84C
330
1F
100
AcDbEntity
  8
0
100
AcDbLine
 10
94.97684626016397
 20
142.3473437454122
 30
0.0
 11
96.27548365406122
 21
143.6459811393094
 31
0.0
  0
LINE
  5
84D
330
1F
100
AcDbEntity
  8
0
100
AcDbLine
 10
92.02610900164701
 20
139.4340831462981
 30
0.0
 11
93.7900987701647
 21
141.1980729148158
 31
0.0
  0
LINE
  5
84E
330
1F
100
AcDbEntity
  8
0
100
AcDbLine
 10
94.94201181934068
 20
142.3499859639917
 30
0.0
 11
96.24832596860591
 21
143.656300113257
 31
0.0
  0
LINE
  5
84F
330
1F
100
AcDbEntity
  8
0
100
AcDbLine
 10
92.0153559008028
 20
139.4608067048567
 30
0.0
 11
93.7943352582435
 21
141.2397860622974
 31
0.0
  0
LINE
  5
850
330
1F
100
AcDbEntity
  8
0
100
AcDbLine
 10
94.90653625484865
 20
142.3519870589026
 30
0.0
 11
96.2209450592164
 21
143.6663958632703
 31
0.0
  0
LINE
  5
851
330
1F
100
AcDbEntity
  8
0
100
AcDbLine
 10
92.00497269489136
 20
139.4879001583482
 30
0.0
 11
93.79910377162028
 21
141.2820312350771
 31
0.0
  0
LINE
  5
852
330
1F
100
AcDbEntity
  8
0
100
AcDbLine
 10
94.87051094032168
 20
142.3534384037785
 30
0.0
 11
96.19333265257804
 21
143.6762601160349
 31
0.0
  0
LINE
  5
853
330
1F
100
AcDbEntity
  8
0
100
AcDbLine
 10
91.99465743611958
 20
139.5150615589793
 30
0.0
 11
93.80459277902662
 21
141.3249969018863
 31
0.0
  0
LINE
  5
854
330
1F
100
AcDbEntity
  8
0
100
AcDbLine
 10
94.83424032965563
 20
142.3546444525153
 30
0.0
 11
96.16552454681889
 21
143.6859286696786
 31
0.0
  0
LINE
  5
855
330
1F
100
AcDbEntity
  8
0
100
AcDbLine
 10
91.98471269386249
 20
139.5425934761251
 30
0.0
 11
93.8110292110363
 21
141.3689099932989
 31
0.0
  0
LINE
  5
856
330
1F
100
AcDbEntity
  8
0
100
AcDbLine
 10
94.79624201257492
 20
142.3541227948375
 30
0.0
 11
96.13745141140869
 21
143.6953321936713
 31
0.0
  0
LINE
  5
857
330
1F
100
AcDbEntity
  8
0
100
AcDbLine
 10
91.97488089023925
 20
139.5702383319047
 30
0.0
 11
93.81864443752706
 21
141.4140018791925
 31
0.0
  0
LINE
  5
858
330
1F
100
AcDbEntity
  8
0
100
AcDbLine
 10
94.75738065126671
 20
142.3527380929322
 30
0.0
 11
96.10923941428108
 21
143.7045968559466
 31
0.0
  0
LINE
  5
859
330
1F
100
AcDbEntity
  8
0
100
AcDbLine
 10
91.96534836251581
 20
139.5981824635842
 30
0.0
 11
93.82766528957116
 21
141.4604993906395
 31
0.0
  0
LINE
  5
85A
330
1F
100
AcDbEntity
  8
0
100
AcDbLine
 10
94.7171401550637
 20
142.3499742561321
 30
0.0
 11
96.0806985018731
 21
143.7135326029415
 31
0.0
  0
LINE
  5
85B
330
1F
100
AcDbEntity
  8
0
100
AcDbLine
 10
91.95601310715561
 20
139.6263238676269
 30
0.0
 11
93.83813893916205
 21
141.5084496996333
 31
0.0
  0
LINE
  5
85C
330
1F
100
AcDbEntity
  8
0
100
AcDbLine
 10
94.67454146467
 20
142.3448522251412
 30
0.0
 11
96.05206884991864
 21
143.7223796103899
 31
0.0
  0
LINE
  5
85D
330
1F
100
AcDbEntity
  8
0
100
AcDbLine
 10
91.94689789733731
 20
139.6546853172114
 30
0.0
 11
93.85032597237701
 21
141.5581133922511
 31
0.0
  0
LINE
  5
85E
330
1F
100
AcDbEntity
  8
0
100
AcDbLine
 10
94.62935430838714
 20
142.3371417282613
 30
0.0
 11
96.02306184237744
 21
143.7308492622516
 31
0.0
  0
LINE
  5
85F
330
1F
100
AcDbEntity
  8
0
100
AcDbLine
 10
91.93807680152855
 20
139.6833408808056
 30
0.0
 11
93.8643147493033
 21
141.6095788285803
 31
0.0
  0
LINE
  5
860
330
1F
100
AcDbEntity
  8
0
100
AcDbLine
 10
94.58169318594133
 20
142.3269572652183
 30
0.0
 11
95.99400578069991
 21
143.7392698599769
 31
0.0
  0
LINE
  5
861
330
1F
100
AcDbEntity
  8
0
100
AcDbLine
 10
91.92938941594313
 20
139.712130154623
 30
0.0
 11
93.88085802655337
 21
141.6635987652333
 31
0.0
  0
LINE
  5
862
330
1F
100
AcDbEntity
  8
0
100
AcDbLine
 10
94.53100061605838
 20
142.3137413547383
 30
0.0
 11
95.96453425215924
 21
143.7472749908391
 31
0.0
  0
LINE
  5
863
330
1F
100
AcDbEntity
  8
0
100
AcDbLine
 10
91.92108546764744
 20
139.7413028657302
 30
0.0
 11
93.90116245067604
 21
141.7213798487588
 31
0.0
  0
LINE
  5
864
330
1F
100
AcDbEntity
  8
0
100
AcDbLine
 10
94.4754737478467
 20
142.2956911459295
 30
0.0
 11
95.93504293793816
 21
143.7552603360209
 31
0.0
  0
LINE
  5
865
330
1F
100
AcDbEntity
  8
0
100
AcDbLine
 10
91.91287205077799
 20
139.7705661082637
 30
0.0
 11
93.92751973145023
 21
141.7852137889359
 31
0.0
  0
LINE
  5
866
330
1F
100
AcDbEntity
  8
0
100
AcDbLine
 10
94.41259570976055
 20
142.2702897672462
 30
0.0
 11
95.90510835129602
 21
143.7628024087817
 31
0.0
  0
LINE
  5
867
330
1F
100
AcDbEntity
  8
0
100
AcDbLine
 10
91.90506584831476
 20
139.8002365652033
 30
0.0
 11
93.96414516992829
 21
141.8593158868169
 31
0.0
  0
LINE
  5
868
330
1F
100
AcDbEntity
  8
0
100
AcDbLine
 10
94.33642206933031
 20
142.2315927862189
 30
0.0
 11
95.87517281422748
 21
143.7703435311161
 31
0.0
  0
LINE
  5
869
330
1F
100
AcDbEntity
  8
0
100
AcDbLine
 10
91.89739663283083
 20
139.8300440091223
 30
0.0
 11
94.02785082700309
 21
141.9604982032945
 31
0.0
  0
LINE
  5
86A
330
1F
100
AcDbEntity
  8
0
100
AcDbLine
 10
94.23046705111157
 20
142.163114427403
 30
0.0
 11
95.84476460660099
 21
143.7774119828924
 31
0.0
  0
LINE
  5
86B
330
1F
100
AcDbEntity
  8
0
100
AcDbLine
 10
91.8900393741841
 20
139.8601634098784
 30
0.0
 11
95.8143563989745
 21
143.7844804346688
 31
0.0
  0
LINE
  5
86C
330
1F
100
AcDbEntity
  8
0
100
AcDbLine
 10
91.88293343393039
 20
139.8905341290276
 30
0.0
 11
95.78352119286072
 21
143.7911218879579
 31
0.0
  0
LINE
  5
86D
330
1F
100
AcDbEntity
  8
0
100
AcDbLine
 10
91.87603502054652
 20
139.9211123750466
 30
0.0
 11
95.752628172692
 21
143.7977055271921
 31
0.0
  0
LINE
  5
86E
330
1F
100
AcDbEntity
  8
0
100
AcDbLine
 10
91.86947575899816
 20
139.9520297729011
 30
0.0
 11
95.72135540950042
 21
143.8039094234034
 31
0.0
  0
LINE
  5
86F
330
1F
100
AcDbEntity
  8
0
100
AcDbLine
 10
91.86302946803133
 20
139.9830601413372
 30
0.0
 11
95.68997816429386
 21
143.8100088375997
 31
0.0
  0
LINE
  5
870
330
1F
100
AcDbEntity
  8
0
100
AcDbLine
 10
91.85700343564206
 20
140.0145107683508
 30
0.0
 11
95.65825637784617
 21
143.8157637105549
 31
0.0
  0
LINE
  5
871
330
1F
100
AcDbEntity
  8
0
100
AcDbLine
 10
91.85107701030417
 20
140.0460610024158
 30
0.0
 11
95.62639552192816
 21
143.8213795140398
 31
0.0
  0
LINE
  5
872
330
1F
100
AcDbEntity
  8
0
100
AcDbLine
 10
91.8454742081707
 20
140.0779348596852
 30
0.0
 11
95.59421331729207
 21
143.8266739688066
 31
0.0
  0
LINE
  5
873
330
1F
100
AcDbEntity
  8
0
100
AcDbLine
 10
91.84006082649462
 20
140.109998137412
 30
0.0
 11
95.56186949310835
 21
143.8318068040257
 31
0.0
  0
LINE
  5
874
330
1F
100
AcDbEntity
  8
0
100
AcDbLine
 10
91.83485957566725
 20
140.1422735459875
 30
0.0
 11
95.52923360024286
 21
143.8366475705631
 31
0.0
  0
LINE
  5
875
330
1F
100
AcDbEntity
  8
0
100
AcDbLine
 10
91.82993982887616
 20
140.1748304585993
 30
0.0
 11
95.49643554881644
 21
143.8413261785396
 31
0.0
  0
LINE
  5
876
330
1F
100
AcDbEntity
  8
0
100
AcDbLine
 10
91.82515118587743
 20
140.2075184750035
 30
0.0
 11
95.4632589791367
 21
143.8456262682627
 31
0.0
  0
LINE
  5
877
330
1F
100
AcDbEntity
  8
0
100
AcDbLine
 10
91.82074714564796
 20
140.2405910941769
 30
0.0
 11
95.42997045410145
 21
143.8498144026304
 31
0.0
  0
LINE
  5
878
330
1F
100
AcDbEntity
  8
0
100
AcDbLine
 10
91.81644946400009
 20
140.2737700719319
 30
0.0
 11
95.39631162816849
 21
143.8536322361003
 31
0.0
  0
LINE
  5
879
330
1F
100
AcDbEntity
  8
0
100
AcDbLine
 10
91.81251453256347
 20
140.3073117998982
 30
0.0
 11
95.3624679641683
 21
143.857265231503
 31
0.0
  0
LINE
  5
87A
330
1F
100
AcDbEntity
  8
0
100
AcDbLine
 10
91.80873973940389
 20
140.3410136661415
 30
0.0
 11
95.32837231551963
 21
143.8606462422572
 31
0.0
  0
LINE
  5
87B
330
1F
100
AcDbEntity
  8
0
100
AcDbLine
 10
91.80525496058735
 20
140.3750055467278
 30
0.0
 11
95.29395784933831
 21
143.8637084354788
 31
0.0
  0
LINE
  5
87C
330
1F
100
AcDbEntity
  8
0
100
AcDbLine
 10
91.80203109846809
 20
140.4092583440114
 30
0.0
 11
95.25940245137639
 21
143.8666296969197
 31
0.0
  0
LINE
  5
87D
330
1F
100
AcDbEntity
  8
0
100
AcDbLine
 10
91.79911599228855
 20
140.4438198972348
 30
0.0
 11
95.22441892287358
 21
143.8691228278198
 31
0.0
  0
LINE
  5
87E
330
1F
100
AcDbEntity
  8
0
100
AcDbLine
 10
91.79650352383506
 20
140.4786840881842
 30
0.0
 11
95.18926377339277
 21
143.8714443377419
 31
0.0
  0
LINE
  5
87F
330
1F
100
AcDbEntity
  8
0
100
AcDbLine
 10
91.79418612239245
 20
140.5138433461445
 30
0.0
 11
95.1538281554975
 21
143.8734853792495
 31
0.0
  0
LINE
  5
880
330
1F
100
AcDbEntity
  8
0
100
AcDbLine
 10
91.79217655829922
 20
140.5493104414541
 30
0.0
 11
95.11812990030701
 21
143.8752637834619
 31
0.0
  0
LINE
  5
881
330
1F
100
AcDbEntity
  8
0
100
AcDbLine
 10
91.7904866570215
 20
140.5850971995793
 30
0.0
 11
95.08228739513683
 21
143.8768979376946
 31
0.0
  0
LINE
  5
882
330
1F
100
AcDbEntity
  8
0
100
AcDbLine
 10
91.78909626471878
 20
140.6211834666794
 30
0.0
 11
95.04613619031484
 21
143.8782233922755
 31
0.0
  0
LINE
  5
883
330
1F
100
AcDbEntity
  8
0
100
AcDbLine
 10
91.78797983012406
 20
140.6575436914876
 30
0.0
 11
95.00990374711381
 21
143.8794676084773
 31
0.0
  0
LINE
  5
884
330
1F
100
AcDbEntity
  8
0
100
AcDbLine
 10
91.78710487187973
 20
140.6941453926462
 30
0.0
 11
94.97347650391056
 21
143.880517024677
 31
0.0
  0
LINE
  5
885
330
1F
100
AcDbEntity
  8
0
100
AcDbLine
 10
91.78642879622426
 20
140.7309459763936
 30
0.0
 11
94.93695723185185
 21
143.8814744120212
 31
0.0
  0
LINE
  5
886
330
1F
100
AcDbEntity
  8
0
100
AcDbLine
 10
91.78587417233697
 20
140.7678680119092
 30
0.0
 11
94.9003595853587
 21
143.8823534249309
 31
0.0
  0
LINE
  5
887
330
1F
100
AcDbEntity
  8
0
100
AcDbLine
 10
91.78539244684097
 20
140.8048629458161
 30
0.0
 11
94.86368833477853
 21
143.8831588337536
 31
0.0
  0
LINE
  5
888
330
1F
100
AcDbEntity
  8
0
100
AcDbLine
 10
91.78563813989501
 20
140.842585298273
 30
0.0
 11
94.82670463466583
 21
143.8836517930438
 31
0.0
  0
LINE
  5
889
330
1F
100
AcDbEntity
  8
0
100
AcDbLine
 10
91.78650729967406
 20
140.8809311174549
 30
0.0
 11
94.78835280092945
 21
143.8827766187103
 31
0.0
  0
LINE
  5
88A
330
1F
100
AcDbEntity
  8
0
100
AcDbLine
 10
91.7874756058327
 20
140.9193760830164
 30
0.0
 11
94.74993459065833
 21
143.881835067842
 31
0.0
  0
LINE
  5
88B
330
1F
100
AcDbEntity
  8
0
100
AcDbLine
 10
91.78854005974684
 20
140.9579171963335
 30
0.0
 11
94.71145232696193
 21
143.8808294635486
 31
0.0
  0
LINE
  5
88C
330
1F
100
AcDbEntity
  8
0
100
AcDbLine
 10
91.78970888512322
 20
140.9965626811127
 30
0.0
 11
94.67279847829631
 21
143.8796522742858
 31
0.0
  0
LINE
  5
88D
330
1F
100
AcDbEntity
  8
0
100
AcDbLine
 10
91.79117177297417
 20
141.0355022283666
 30
0.0
 11
94.6339463905092
 21
143.8782768459016
 31
0.0
  0
LINE
  5
88E
330
1F
100
AcDbEntity
  8
0
100
AcDbLine
 10
91.79283690810645
 20
141.0746440229017
 30
0.0
 11
94.59492138153233
 21
143.8767284963276
 31
0.0
  0
LINE
  5
88F
330
1F
100
AcDbEntity
  8
0
100
AcDbLine
 10
91.79472521586253
 20
141.1140089900607
 30
0.0
 11
94.55554298214417
 21
143.8748267563423
 31
0.0
  0
LINE
  5
890
330
1F
100
AcDbEntity
  8
0
100
AcDbLine
 10
91.79713195276989
 20
141.1538923863709
 30
0.0
 11
94.51580161569052
 21
143.8725620492916
 31
0.0
  0
LINE
  5
891
330
1F
100
AcDbEntity
  8
0
100
AcDbLine
 10
91.79986932193998
 20
141.1941064149439
 30
0.0
 11
94.47574781320343
 21
143.8699849062073
 31
0.0
  0
LINE
  5
892
330
1F
100
AcDbEntity
  8
0
100
AcDbLine
 10
91.80300521099242
 20
141.2347189633992
 30
0.0
 11
94.4352069726147
 21
143.8669207250215
 31
0.0
  0
LINE
  5
893
330
1F
100
AcDbEntity
  8
0
100
AcDbLine
 10
91.80669563497975
 20
141.2758860467894
 30
0.0
 11
94.39409864571707
 21
143.8632890575267
 31
0.0
  0
LINE
  5
894
330
1F
100
AcDbEntity
  8
0
100
AcDbLine
 10
91.81092775331426
 20
141.3175948245268
 30
0.0
 11
94.35253857588746
 21
143.8592056471
 31
0.0
  0
LINE
  5
895
330
1F
100
AcDbEntity
  8
0
100
AcDbLine
 10
91.8156341033028
 20
141.3597778339183
 30
0.0
 11
94.31049995855962
 21
143.8546436891751
 31
0.0
  0
LINE
  5
896
330
1F
100
AcDbEntity
  8
0
100
AcDbLine
 10
91.82084351253961
 20
141.4024639025579
 30
0.0
 11
94.26790990877369
 21
143.849530298792
 31
0.0
  0
LINE
  5
897
330
1F
100
AcDbEntity
  8
0
100
AcDbLine
 10
91.82665311748232
 20
141.4457501669035
 30
0.0
 11
94.22461618932795
 21
143.8437132387492
 31
0.0
  0
LINE
  5
898
330
1F
100
AcDbEntity
  8
0
100
AcDbLine
 10
91.83317045814789
 20
141.489744166972
 30
0.0
 11
94.18074498931291
 21
143.837318698137
 31
0.0
  0
LINE
  5
899
330
1F
100
AcDbEntity
  8
0
100
AcDbLine
 10
91.84033835494903
 20
141.534388723176
 30
0.0
 11
94.13622849778169
 21
143.8302788660087
 31
0.0
  0
LINE
  5
89A
330
1F
100
AcDbEntity
  8
0
100
AcDbLine
 10
91.84806654466297
 20
141.5795935722929
 30
0.0
 11
94.09115865958987
 21
143.8226856872197
 31
0.0
  0
LINE
  5
89B
330
1F
100
AcDbEntity
  8
0
100
AcDbLine
 10
91.8565209573618
 20
141.6255246443945
 30
0.0
 11
94.04514152980838
 21
143.8141452168411
 31
0.0
  0
LINE
  5
89C
330
1F
100
AcDbEntity
  8
0
100
AcDbLine
 10
91.86594996135055
 20
141.6724303077862
 30
0.0
 11
93.99835430334174
 21
143.8048346497774
 31
0.0
  0
LINE
  5
89D
330
1F
100
AcDbEntity
  8
0
100
AcDbLine
 10
91.87614916893784
 20
141.7201061747764
 30
0.0
 11
93.95079266793378
 21
143.7947496737723
 31
0.0
  0
LINE
  5
89E
330
1F
100
AcDbEntity
  8
0
100
AcDbLine
 10
91.8871963711144
 20
141.7686300363558
 30
0.0
 11
93.90237944160691
 21
143.7838131068483
 31
0.0
  0
LINE
  5
89F
330
1F
100
AcDbEntity
  8
0
100
AcDbLine
 10
91.89918169283786
 20
141.8180920174821
 30
0.0
 11
93.85286169674205
 21
143.7717720213863
 31
0.0
  0
LINE
  5
8A0
330
1F
100
AcDbEntity
  8
0
100
AcDbLine
 10
91.91244383839494
 20
141.8688308224421
 30
0.0
 11
93.80217084274845
 21
143.7585578267956
 31
0.0
  0
LINE
  5
8A1
330
1F
100
AcDbEntity
  8
0
100
AcDbLine
 10
91.92695844394225
 20
141.9208220873923
 30
0.0
 11
93.7502847073538
 21
143.7441483508039
 31
0.0
  0
LINE
  5
8A2
330
1F
100
AcDbEntity
  8
0
100
AcDbLine
 10
91.94283374627749
 20
141.9741740491305
 30
0.0
 11
93.69705372145332
 21
143.7283940243063
 31
0.0
  0
LINE
  5
8A3
330
1F
100
AcDbEntity
  8
0
100
AcDbLine
 10
91.96026400035859
 20
142.0290809626144
 30
0.0
 11
93.64229325731982
 21
143.7111102195757
 31
0.0
  0
LINE
  5
8A4
330
1F
100
AcDbEntity
  8
0
100
AcDbLine
 10
91.97948799410037
 20
142.0857816157591
 30
0.0
 11
93.58577819409658
 21
143.6920718157553
 31
0.0
  0
LINE
  5
8A5
330
1F
100
AcDbEntity
  8
0
100
AcDbLine
 10
92.00077190948961
 20
142.1445421905512
 30
0.0
 11
93.52724925124257
 21
143.6710195323042
 31
0.0
  0
LINE
  5
8A6
330
1F
100
AcDbEntity
  8
0
100
AcDbLine
 10
92.02447367024575
 20
142.2057206107102
 30
0.0
 11
93.46632472132889
 21
143.6475716617934
 31
0.0
  0
LINE
  5
8A7
330
1F
100
AcDbEntity
  8
0
100
AcDbLine
 10
92.05095158320603
 20
142.2696751830734
 30
0.0
 11
93.40257380866588
 21
143.6212974085333
 31
0.0
  0
LINE
  5
8A8
330
1F
100
AcDbEntity
  8
0
100
AcDbLine
 10
92.0812000211109
 20
142.3374002803812
 30
0.0
 11
93.33519387179388
 21
143.5913941310641
 31
0.0
  0
LINE
  5
8A9
330
1F
100
AcDbEntity
  8
0
100
AcDbLine
 10
92.11564226301722
 20
142.4093191816904
 30
0.0
 11
93.26279645367221
 21
143.5564733723454
 31
0.0
  0
LINE
  5
8AA
330
1F
100
AcDbEntity
  8
0
100
AcDbLine
 10
92.15542997775783
 20
142.4865835558339
 30
0.0
 11
93.18478247528203
 21
143.515936053358
 31
0.0
  0
LINE
  5
8AB
330
1F
100
AcDbEntity
  8
0
100
AcDbLine
 10
92.20369910024863
 20
142.5723293377276
 30
0.0
 11
93.0976999519421
 21
143.466330189421
 31
0.0
  0
LINE
  5
8AC
330
1F
100
AcDbEntity
  8
0
100
AcDbLine
 10
92.26532856897049
 20
142.6714354658523
 30
0.0
 11
92.99872965128512
 21
143.4048365481669
 31
0.0
  0
LINE
  5
8AD
330
1F
100
AcDbEntity
  8
0
100
AcDbLine
 10
92.3539741114419
 20
142.7975576677266
 30
0.0
 11
92.87706183429768
 21
143.3206453905823
 31
0.0
  0
LINE
  5
8AE
330
1F
100
AcDbEntity
  8
0
100
AcDbLine
 10
92.55176100358139
 20
143.032821219269
 30
0.0
 11
92.64749053579821
 21
143.1285507514858
 31
0.0
  0
ENDSEC
  0
SECTION
  2
OBJECTS
  0
DICTIONARY
  5
C
330
0
100
AcDbDictionary
281
     1
  3
ACAD_COLOR
350
6C
  3
ACAD_GROUP
350
D
  3
ACAD_LAYOUT
350
1A
  3
ACAD_MATERIAL
350
6B
  3
ACAD_MLEADERSTYLE
350
125
  3
ACAD_MLINESTYLE
350
17
  3
ACAD_PLOTSETTINGS
350
19
  3
ACAD_PLOTSTYLENAME
350
E
  3
ACAD_SCALELIST
350
3B
  3
ACAD_TABLESTYLE
350
92
  3
ACAD_VISUALSTYLE
350
2A
  3
AcDbVariableDictionary
350
59
  0
DICTIONARY
  5
6C
102
{ACAD_REACTORS
330
C
102
}
330
C
100
AcDbDictionary
281
     1
  0
DICTIONARY
  5
D
102
{ACAD_REACTORS
330
C
102
}
330
C
100
AcDbDictionary
281
     1
  0
DICTIONARY
  5
1A
102
{ACAD_REACTORS
330
C
102
}
330
C
100
AcDbDictionary
281
     1
  3
Layout1
350
74
  3
Layout2
350
26
  3
Model
350
22
  0
DICTIONARY
  5
6B
102
{ACAD_REACTORS
330
C
102
}
330
C
100
AcDbDictionary
281
     1
  0
DICTIONARY
  5
125
102
{ACAD_REACTORS
330
C
102
}
330
C
100
AcDbDictionary
281
     1
  0
DICTIONARY
  5
17
102
{ACAD_REACTORS
330
C
102
}
330
C
100
AcDbDictionary
281
     1
  3
Standard
350
18
  0
DICTIONARY
  5
19
102
{ACAD_REACTORS
330
C
102
}
330
C
100
AcDbDictionary
281
     1
  0
ACDBDICTIONARYWDFLT
  5
E
102
{ACAD_REACTORS
330
C
102
}
330
C
100
AcDbDictionary
281
     1
  3
Normal
350
F
100
AcDbDictionaryWithDefault
340
F
  0
DICTIONARY
  5
3B
102
{ACAD_REACTORS
330
C
102
}
330
C
100
AcDbDictionary
281
     1
  3
A0
350
3C
  3
A1
350
3D
  3
A2
350
3E
  3
A3
350
3F
  3
A4
350
40
  3
A5
350
41
  3
A6
350
42
  3
A7
350
43
  3
A8
350
44
  3
A9
350
45
  3
B0
350
46
  3
B1
350
47
  3
B2
350
48
  3
B3
350
49
  3
B4
350
4A
  3
B5
350
4B
  3
B6
350
4C
  3
B7
350
4D
  3
B8
350
4E
  3
B9
350
4F
  3
C0
350
50
  3
C1
350
51
  3
C2
350
52
  3
C3
350
53
  3
C4
350
54
  3
C5
350
55
  3
C6
350
56
  3
C7
350
57
  3
C8
350
58
  3
C9
350
255
  3
D0
350
256
  3
D1
350
5B
  3
D2
350
5C
  0
DICTIONARY
  5
92
102
{ACAD_REACTORS
330
C
102
}
330
C
100
AcDbDictionary
281
     1
  3
Standard
350
93
  0
DICTIONARY
  5
2A
102
{ACAD_REACTORS
330
C
102
}
330
C
100
AcDbDictionary
281
     1
  3
2DWIREFRAME
350
2F
  3
3D HIDDEN
350
31
  3
3DWIREFRAME
350
30
  3
BASIC
350
32
  3
BRIGHTEN
350
36
  3
COLORCHANGE
350
3A
  3
CONCEPTUAL
350
34
  3
DIM
350
35
  3
FACEPATTERN
350
39
  3
FLAT
350
2B
  3
FLATWITHEDGES
350
2C
  3
GOURAUD
350
2D
  3
GOURAUDWITHEDGES
350
2E
  3
LINEPATTERN
350
38
  3
REALISTIC
350
33
  3
THICKEN
350
37
  0
DICTIONARY
  5
59
102
{ACAD_REACTORS
330
C
102
}
330
C
100
AcDbDictionary
281
     1
  3
CANNOSCALE
350
123
  3
CTABLESTYLE
350
98
  3
HIDETEXT
350
269
  3
PSOLHEIGHT
350
25B
  3
PSOLWIDTH
350
126
  0
LAYOUT
  5
74
102
{ACAD_REACTORS
330
1A
102
}
330
1A
100
AcDbPlotSettings
  1

  2
none_device
  4

  6

 40
0.0
 41
0.0
 42
0.0
 43
0.0
 44
0.0
 45
0.0
 46
0.0
 47
0.0
 48
0.0
 49
0.0
140
0.0
141
0.0
142
1.0
143
1.0
 70
   688
 72
     0
 73
     0
 74
     5
  7

 75
    16
 76
     0
 77
     2
 78
   300
147
1.0
148
0.0
149
0.0
100
AcDbLayout
  1
Layout1
 70
     1
 71
     1
 10
0.0
 20
0.0
 11
420.0
 21
297.0
 12
0.0
 22
0.0
 32
0.0
 14
1.000000000000000E+20
 24
1.000000000000000E+20
 34
1.000000000000000E+20
 15
-1.000000000000000E+20
 25
-1.000000000000000E+20
 35
-1.000000000000000E+20
146
0.0
 13
0.0
 23
0.0
 33
0.0
 16
1.0
 26
0.0
 36
0.0
 17
0.0
 27
1.0
 37
0.0
 76
     0
330
73
  0
LAYOUT
  5
26
102
{ACAD_REACTORS
330
1A
102
}
330
1A
100
AcDbPlotSettings
  1

  2
none_device
  4

  6

 40
0.0
 41
0.0
 42
0.0
 43
0.0
 44
0.0
 45
0.0
 46
0.0
 47
0.0
 48
0.0
 49
0.0
140
0.0
141
0.0
142
1.0
143
1.0
 70
   688
 72
     0
 73
     0
 74
     5
  7

 75
    16
 76
     0
 77
     2
 78
   300
147
1.0
148
0.0
149
0.0
100
AcDbLayout
  1
Layout2
 70
     1
 71
     2
 10
0.0
 20
0.0
 11
0.0
 21
0.0
 12
0.0
 22
0.0
 32
0.0
 14
0.0
 24
0.0
 34
0.0
 15
0.0
 25
0.0
 35
0.0
146
0.0
 13
0.0
 23
0.0
 33
0.0
 16
1.0
 26
0.0
 36
0.0
 17
0.0
 27
1.0
 37
0.0
 76
     0
330
23
  0
LAYOUT
  5
22
102
{ACAD_REACTORS
330
1A
102
}
330
1A
100
AcDbPlotSettings
  1

  2
none_device
  4

  6

 40
0.0
 41
0.0
 42
0.0
 43
0.0
 44
0.0
 45
0.0
 46
0.0
 47
0.0
 48
0.0
 49
0.0
140
0.0
141
0.0
142
1.0
143
1.0
 70
 11952
 72
     0
 73
     0
 74
     0
  7

 75
     0
 76
     0
 77
     2
 78
   300
147
1.0
148
0.0
149
0.0
100
AcDbLayout
  1
Model
 70
     1
 71
     0
 10
0.0
 20
0.0
 11
279.4
 21
215.9
 12
0.0
 22
0.0
 32
0.0
 14
91.7851771256918
 24
137.7678366583862
 34
0.0
 15
116.7842154110347
 25
143.8838093079589
 35
0.0
146
0.0
 13
0.0
 23
0.0
 33
0.0
 16
1.0
 26
0.0
 36
0.0
 17
0.0
 27
1.0
 37
0.0
 76
     0
330
1F
  0
MLINESTYLE
  5
18
102
{ACAD_REACTORS
330
17
102
}
330
17
100
AcDbMlineStyle
  2
Standard
 70
     0
  3

 62
   256
 51
90.0
 52
90.0
 71
     2
 49
0.5
 62
   256
  6
BYLAYER
 49
-0.5
 62
   256
  6
BYLAYER
  0
ACDBPLACEHOLDER
  5
F
102
{ACAD_REACTORS
330
E
102
}
330
E
  0
SCALE
  5
3C
102
{ACAD_REACTORS
330
3B
102
}
330
3B
100
AcDbScale
 70
     0
300
1:1
140
1.0
141
1.0
290
     1
  0
SCALE
  5
3D
102
{ACAD_REACTORS
330
3B
102
}
330
3B
100
AcDbScale
 70
     0
300
1:2
140
1.0
141
2.0
290
     1
  0
SCALE
  5
3E
102
{ACAD_REACTORS
330
3B
102
}
330
3B
100
AcDbScale
 70
     0
300
1:4
140
1.0
141
4.0
290
     1
  0
SCALE
  5
3F
102
{ACAD_REACTORS
330
3B
102
}
330
3B
100
AcDbScale
 70
     0
300
1:5
140
1.0
141
5.0
290
     1
  0
SCALE
  5
40
102
{ACAD_REACTORS
330
3B
102
}
330
3B
100
AcDbScale
 70
     0
300
1:8
140
1.0
141
8.0
290
     1
  0
SCALE
  5
41
102
{ACAD_REACTORS
330
3B
102
}
330
3B
100
AcDbScale
 70
     0
300
1:10
140
1.0
141
10.0
290
     1
  0
SCALE
  5
42
102
{ACAD_REACTORS
330
3B
102
}
330
3B
100
AcDbScale
 70
     0
300
1:16
140
1.0
141
16.0
290
     1
  0
SCALE
  5
43
102
{ACAD_REACTORS
330
3B
102
}
330
3B
100
AcDbScale
 70
     0
300
1:20
140
1.0
141
20.0
290
     1
  0
SCALE
  5
44
102
{ACAD_REACTORS
330
3B
102
}
330
3B
100
AcDbScale
 70
     0
300
1:30
140
1.0
141
30.0
290
     1
  0
SCALE
  5
45
102
{ACAD_REACTORS
330
3B
102
}
330
3B
100
AcDbScale
 70
     0
300
1:40
140
1.0
141
40.0
290
     1
  0
SCALE
  5
46
102
{ACAD_REACTORS
330
3B
102
}
330
3B
100
AcDbScale
 70
     0
300
1:50
140
1.0
141
50.0
290
     1
  0
SCALE
  5
47
102
{ACAD_REACTORS
330
3B
102
}
330
3B
100
AcDbScale
 70
     0
300
1:100
140
1.0
141
100.0
290
     1
  0
SCALE
  5
48
102
{ACAD_REACTORS
330
3B
102
}
330
3B
100
AcDbScale
 70
     0
300
2:1
140
2.0
141
1.0
290
     1
  0
SCALE
  5
49
102
{ACAD_REACTORS
330
3B
102
}
330
3B
100
AcDbScale
 70
     0
300
4:1
140
4.0
141
1.0
290
     1
  0
SCALE
  5
4A
102
{ACAD_REACTORS
330
3B
102
}
330
3B
100
AcDbScale
 70
     0
300
8:1
140
8.0
141
1.0
290
     1
  0
SCALE
  5
4B
102
{ACAD_REACTORS
330
3B
102
}
330
3B
100
AcDbScale
 70
     0
300
10:1
140
10.0
141
1.0
290
     1
  0
SCALE
  5
4C
102
{ACAD_REACTORS
330
3B
102
}
330
3B
100
AcDbScale
 70
     0
300
100:1
140
100.0
141
1.0
290
     1
  0
SCALE
  5
4D
102
{ACAD_REACTORS
330
3B
102
}
330
3B
100
AcDbScale
 70
     0
300
1/128" = 1'-0"
140
0.0078125
141
12.0
290
     1
  0
SCALE
  5
4E
102
{ACAD_REACTORS
330
3B
102
}
330
3B
100
AcDbScale
 70
     0
300
1/64" = 1'-0"
140
0.015625
141
12.0
290
     1
  0
SCALE
  5
4F
102
{ACAD_REACTORS
330
3B
102
}
330
3B
100
AcDbScale
 70
     0
300
1/32" = 1'-0"
140
0.03125
141
12.0
290
     1
  0
SCALE
  5
50
102
{ACAD_REACTORS
330
3B
102
}
330
3B
100
AcDbScale
 70
     0
300
1/16" = 1'-0"
140
0.0625
141
12.0
290
     1
  0
SCALE
  5
51
102
{ACAD_REACTORS
330
3B
102
}
330
3B
100
AcDbScale
 70
     0
300
3/32" = 1'-0"
140
0.09375
141
12.0
290
     1
  0
SCALE
  5
52
102
{ACAD_REACTORS
330
3B
102
}
330
3B
100
AcDbScale
 70
     0
300
1/8" = 1'-0"
140
0.125
141
12.0
290
     1
  0
SCALE
  5
53
102
{ACAD_REACTORS
330
3B
102
}
330
3B
100
AcDbScale
 70
     0
300
3/16" = 1'-0"
140
0.1875
141
12.0
290
     1
  0
SCALE
  5
54
102
{ACAD_REACTORS
330
3B
102
}
330
3B
100
AcDbScale
 70
     0
300
1/4" = 1'-0"
140
0.25
141
12.0
290
     1
  0
SCALE
  5
55
102
{ACAD_REACTORS
330
3B
102
}
330
3B
100
AcDbScale
 70
     0
300
3/8" = 1'-0"
140
0.375
141
12.0
290
     1
  0
SCALE
  5
56
102
{ACAD_REACTORS
330
3B
102
}
330
3B
100
AcDbScale
 70
     0
300
1/2" = 1'-0"
140
0.5
141
12.0
290
     1
  0
SCALE
  5
57
102
{ACAD_REACTORS
330
3B
102
}
330
3B
100
AcDbScale
 70
     0
300
3/4" = 1'-0"
140
0.75
141
12.0
290
     1
  0
SCALE
  5
58
102
{ACAD_REACTORS
330
3B
102
}
330
3B
100
AcDbScale
 70
     0
300
1" = 1'-0"
140
1.0
141
12.0
290
     1
  0
SCALE
  5
255
102
{ACAD_REACTORS
330
3B
102
}
330
3B
100
AcDbScale
 70
     0
300
1-1/2" = 1'-0"
140
1.5
141
12.0
290
     1
  0
SCALE
  5
256
102
{ACAD_REACTORS
330
3B
102
}
330
3B
100
AcDbScale
 70
     0
300
3" = 1'-0"
140
3.0
141
12.0
290
     1
  0
SCALE
  5
5B
102
{ACAD_REACTORS
330
3B
102
}
330
3B
100
AcDbScale
 70
     0
300
6" = 1'-0"
140
6.0
141
12.0
290
     1
  0
SCALE
  5
5C
102
{ACAD_REACTORS
330
3B
102
}
330
3B
100
AcDbScale
 70
     0
300
1'-0" = 1'-0"
140
12.0
141
12.0
290
     1
  0
TABLESTYLE
  5
93
102
{ACAD_REACTORS
330
92
102
}
330
92
100
AcDbTableStyle
  3
Standard
 70
     0
 71
     0
 40
0.06
 41
0.06
280
     0
281
     0
  7
Standard
140
0.18
170
     2
 62
     0
 63
     7
283
     0
274
    -2
284
     1
 64
     0
275
    -2
285
     1
 65
     0
276
    -2
286
     1
 66
     0
277
    -2
287
     1
 67
     0
278
    -2
288
     1
 68
     0
279
    -2
289
     1
 69
     0
  7
Standard
140
0.25
170
     5
 62
     0
 63
     7
283
     0
274
    -2
284
     1
 64
     0
275
    -2
285
     1
 65
     0
276
    -2
286
     1
 66
     0
277
    -2
287
     1
 67
     0
278
    -2
288
     1
 68
     0
279
    -2
289
     1
 69
     0
  7
Standard
140
0.18
170
     5
 62
     0
 63
     7
283
     0
274
    -2
284
     1
 64
     0
275
    -2
285
     1
 65
     0
276
    -2
286
     1
 66
     0
277
    -2
287
     1
 67
     0
278
    -2
288
     1
 68
     0
279
    -2
289
     1
 69
     0
  0
ACAD_PROXY_OBJECT
  5
2F
102
{ACAD_REACTORS
330
2A
102
}
330
2A
100
AcDbProxyObject
 90
      499
 91
      506
 95
       25
 70
     0
 93
      590
310
42CC9915DA5C99599C985B595049028333333333333E3BF0000000000000FB0201C00030C02405048070000C3008010100C300405A00404030C014050640A01C00030C010500B20280D4
1001
ACAD
1000
AcDbSavedByObjectVersion
1070
     0
  0
ACAD_PROXY_OBJECT
  5
31
102
{ACAD_REACTORS
330
2A
102
}
330
2A
100
AcDbProxyObject
 90
      499
 91
      506
 95
       25
 70
     0
 93
      654
310
424CD108121A5919195B90640502408333333333333E3BF0000000000000FB0201C00030C02409028070000C3008010100C3004080000000000004440A00404030C014050640A01C00030C010300B20280D4
1001
ACAD
1000
AcDbSavedByObjectVersion
1070
     0
  0
ACAD_PROXY_OBJECT
  5
30
102
{ACAD_REACTORS
330
2A
102
}
330
2A
100
AcDbProxyObject
 90
      499
 91
      506
 95
       25
 70
     0
 93
      590
310
42CCD915DA5C99599C985B595059028333333333333E3BF0000000000000FB0201C00030C02405048070000C3008010100C300405A00404030C014050640A01C00030C010500B20280D4
1001
ACAD
1000
AcDbSavedByObjectVersion
1070
     0
  0
ACAD_PROXY_OBJECT
  5
32
102
{ACAD_REACTORS
330
2A
102
}
330
2A
100
AcDbProxyObject
 90
      499
 91
      506
 95
       25
 70
     0
 93
      550
310
4150985CDA58D07406404333333333333E3BF0000000000000FB0201C00030C029048070000C3008010100C30040542201C00030C014050640A01C00030C010500B20280D4
1001
ACAD
1000
AcDbSavedByObjectVersion
1070
     0
  0
ACAD_PROXY_OBJECT
  5
36
102
{ACAD_REACTORS
330
2A
102
}
330
2A
100
AcDbProxyObject
 90
      499
 91
      506
 95
       25
 70
     0
 93
      590
310
42109C9A59DA1D195B90C409028333333333333E3BF0000000000000FB0201C00030C02405048070000C3008010100C30040542201C00030C014050640A01C00030C010500B20280A654
1001
ACAD
1000
AcDbSavedByObjectVersion
1070
     0
  0
ACAD_PROXY_OBJECT
  5
3A
102
{ACAD_REACTORS
330
2A
102
}
330
2A
100
AcDbProxyObject
 90
      499
 91
      506
 95
       25
 70
     0
 93
      614
310
42D0DBDB1BDC90DA185B99D95104090240C333333333333E3BF0000000000000FB0202000030C02405048070000C3008010100C30040542202000030C014050640A01C00030C010500B20280D4
1001
ACAD
1000
AcDbSavedByObjectVersion
1070
     0
  0
ACAD_PROXY_OBJECT
  5
34
102
{ACAD_REACTORS
330
2A
102
}
330
2A
100
AcDbProxyObject
 90
      499
 91
      506
 95
       25
 70
     0
 93
      662
310
4290DBDB98D95C1D1D585B10940D028333333333333E3BF0000000000000FB0201C00030C02409028070000C3008010100C300404000000000000444042201C00030C014050640A01C00030C010300B20280D4
1001
ACAD
1000
AcDbSavedByObjectVersion
1070
     0
  0
ACAD_PROXY_OBJECT
  5
35
102
{ACAD_REACTORS
330
2A
102
}
330
2A
100
AcDbProxyObject
 90
      499
 91
      506
 95
       25
 70
     0
 93
      574
310
40D11A5B50B409028333333333333E3BF0000000000000FB0201C00030C02405048070000C3008010100C30040542201C00030C014050640A01C00030C010500B2028099DFFFFFF4
1001
ACAD
1000
AcDbSavedByObjectVersion
1070
     0
  0
ACAD_PROXY_OBJECT
  5
39
102
{ACAD_REACTORS
330
2A
102
}
330
2A
100
AcDbProxyObject
 90
      499
 91
      506
 95
       25
 70
     0
 93
      606
310
42D19858D95C185D1D195C9B90F409028333333333333E3BF0000000000000FB0201C00030C02405048070000C3008010100C30040542201C00030C014050640A01C00030C010500B20280D4
1001
ACAD
1000
AcDbSavedByObjectVersion
1070
     0
  0
ACAD_PROXY_OBJECT
  5
2B
102
{ACAD_REACTORS
330
2A
102
}
330
2A
100
AcDbProxyObject
 90
      499
 91
      506
 95
       25
 70
     0
 93
      550
310
41119B185D240901404333333333333E3BF0000000000000F90201C00030C01029048070000C3008010100C30040542201C00030C014050640A01C00030C010500B20286D4
1001
ACAD
1000
AcDbSavedByObjectVersion
1070
     0
  0
ACAD_PROXY_OBJECT
  5
2C
102
{ACAD_REACTORS
330
2A
102
}
330
2A
100
AcDbProxyObject
 90
      499
 91
      506
 95
       25
 70
     0
 93
      630
310
43519B185D15DA5D1A115919D95CD0140901404333333333333E3BF0000000000000F90201C00030C0102405048070000C3008010100C300405A00404030C014050640A01C00030C010500B20286D4
1001
ACAD
1000
AcDbSavedByObjectVersion
1070
     0
  0
ACAD_PROXY_OBJECT
  5
2D
102
{ACAD_REACTORS
330
2A
102
}
330
2A
100
AcDbProxyObject
 90
      499
 91
      506
 95
       25
 70
     0
 93
      574
310
41D1DBDD5C985D5910240902404333333333333E3BF0000000000000F90201C00030C01029048070000C3008010100C300405A01C00030C014050640A01C00030C010500B20286D4
1001
ACAD
1000
AcDbSavedByObjectVersion
1070
     0
  0
ACAD_PROXY_OBJECT
  5
2E
102
{ACAD_REACTORS
330
2A
102
}
330
2A
100
AcDbProxyObject
 90
      499
 91
      506
 95
       25
 70
     0
 93
      654
310
4411DBDD5C985D5915DA5D1A115919D95CD0340902404333333333333E3BF0000000000000F90201C00030C0102405048070000C3008010100C300405A00404030C014050640A01C00030C010500B20286D4
1001
ACAD
1000
AcDbSavedByObjectVersion
1070
     0
  0
ACAD_PROXY_OBJECT
  5
38
102
{ACAD_REACTORS
330
2A
102
}
330
2A
100
AcDbProxyObject
 90
      499
 91
      506
 95
       25
 70
     0
 93
      606
310
42D31A5B995C185D1D195C9B90E409028333333333333E3BF0000000000000FB0201C00030C02405048070000C3008010100C30041D42201C00030C014050640A01C00030C010500B20E80D4
1001
ACAD
1000
AcDbSavedByObjectVersion
1070
     0
  0
ACAD_PROXY_OBJECT
  5
33
102
{ACAD_REACTORS
330
2A
102
}
330
2A
100
AcDbProxyObject
 90
      499
 91
      506
 95
       25
 70
     0
 93
      582
310
425499585B1A5CDD1A58D08409028333333333333E3BF0000000000000FB0201C00030C024068070000C3008010100C30040542202000030C014050640A01C00030C010500B20286D4
1001
ACAD
1000
AcDbSavedByObjectVersion
1070
     0
  0
ACAD_PROXY_OBJECT
  5
37
102
{ACAD_REACTORS
330
2A
102
}
330
2A
100
AcDbProxyObject
 90
      499
 91
      506
 95
       25
 70
     0
 93
      574
310
41D51A1A58DAD95B90D409028333333333333E3BF0000000000000FB0201C00030C02405048070000C3008010100C30040543201C00030C014050640A01C00030C010500B20280D4
1001
ACAD
1000
AcDbSavedByObjectVersion
1070
     0
  0
DICTIONARYVAR
  5
123
102
{ACAD_REACTORS
330
59
102
}
330
59
100
DictionaryVariables
280
     0
  1
1:1
  0
DICTIONARYVAR
  5
98
102
{ACAD_REACTORS
330
59
102
}
330
59
100
DictionaryVariables
280
     0
  1
STANDARD
  0
DICTIONARYVAR
  5
269
102
{ACAD_REACTORS
330
59
102
}
330
59
100
DictionaryVariables
280
     0
  1
2
  0
DICTIONARYVAR
  5
25B
102
{ACAD_REACTORS
330
59
102
}
330
59
100
DictionaryVariables
280
     0
  1
2
  0
DICTIONARYVAR
  5
126
102
{ACAD_REACTORS
330
59
102
}
330
59
100
DictionaryVariables
280
     0
  1
5.000000
  0
ENDSEC
  0
EOF
